ConnexionConnexionInscription
B E A D G
151 connectés Aller à Sweepyto Guitare

Selah Sue - This World [ Artiste ]

Publié par le
30/11/2011
37522 vues
Débutant 3
http://www.youtube.com/watch?v=8A7YIyPmIQ0
    
        

**************************
* Selah Sue : This World *
**************************

mesure = 2/4, tempo = 70, subdivision (-) = double-croche
suggestion de réglages :
    micro : 50% manche / 50% chevalet
    EQ = 100% bass / 0% mid / 50% treble

Instructions spéciales :

|-**-
|-33- = 333 deux fois plus vite (triple-croches)

|-/\-    HP
|-33- = 353 deux fois plus vite (triple-croches)

Intro :
G|--------|--------|--------|-**-----|--------|--------|--------|--------|
D|--------|--------|--------|-33---3+|--------|--------|-------3|+-------|
A|--------|-666+---|3333+---|-----3--|--------|-666+---|3333+---|-3+-----|
E|33333+--|--------|--------|---11---|3333+---|--------|--------|---1+---|

Intro 2 :
G|--------|--------|--------|-**-----|--------|--------|--------|---/\---|
D|--------|--------|--------|-33---3+|--------|--------|--------|---33---|
A|--------|-666+---|3333+---|-----3--|--------|-666+---|3333+---|-3+-----|
E|3333+---|--------|--------|---11---|3333+---|--------|-------1|+-----1+|

Couplet :
 |: 2x                                                                  :|
G|--------|--------|--------|-**-----|--------|--------|--------|--------|
D|--------|--------|--------|-33---3+|--------|--------|-------3|+----3+-|
A|--------|-666+---|3333+---|-----3--|--------|-666+---|3333+---|-3+-----|
E|3333-+--|--------|--------|---11---|3333+---|--------|--------|---1+---|

Refrain :
G|--------|--------|--------|--------|--------|--------|--------|--------|
D|--5--5+-|-----5+-|--------|-----5--|-----5+-|-----5+-|-----5+-|--------|
A|----5---|6-------|7----+--|6-----65|--------|6-------|7-------|6----5--|
E|3-------|--------|--------|--------|3-3-----|--------|--------|------65|

G|--------|--------|--------|------H-|--------|--------|--------|--------|
D|-----5+-|-----5+-|-----5+-|-----35-|-----5+-|-----5+-|-----5+-|--------|
A|--------|6-6-----|7-7-----|6-6-----|--------|6-6-----|7-7-----|6-6--+--|
E|3-3-----|--------|--------|--------|3-3-----|--------|--------|--------|

Pont :
G|--------|--------|-H------|--------|--------|--------|-H------|--------|
D|--------|--------|35--3---|0-------|--------|--------|35--3---|0-------|
A|--------|--------|--------|----1---|--------|--------|--------|----1---|
E|11111+--|--------|--------|--------|11111+--|--------|--------|--------|

G|--------|--------|--------|--------|--------|--------|--------|--------|
D|--------|--------|--------|--------|--------|--------|--------|--------|
A|--------|--------|----0---|1---2---|33333+--|--------|--------|--------|
E|1111/-\-|--------|3-------|--------|--------|-------3|--------|--------|

Intro
Couplet
Refrain
Pont

Pont 2 :
                                                 HP
G|--------|--------|--------|--------|--------|-787-P--|--------|--------|
D|--------|--------|--------|--------|--------|----87-P|--------|--------|
A|--------|--------|--------|--------|--------|------85|--------|--------|
E|3-3--3--|-33-----|33-3-3--|-33-----|3-3--3--|--------|3-3--3--|-33-----|

G|--------|------H-|--------|--------|--------|--------|
D|--------|-----35-|--------|--------|--------|--------|
A|--------|--------|--------|--------|--------|--------|
E|333--3-3|-33-----|3-3--3-3|-33--/\-|33333333|3333333+|

Pont

=========================================================================================================================
Légende : + = étouffer la corde (stopper le son)
          \ = glissé vers le bas
          / = glissé vers le haut
          H = Hammer On (de la note qui se trouve juste sous le H)
          P = Pull Off (de la note qui se trouve juste sous le P)
          |: Nx :| = répéter N fois le passage entre |: et :|
          Il y a si peu de petites variations que cela ne valait pas la peine de remplir des feuilles de tablatures
          juste pour ces dernières. Ce morceau n'est donc pas scrupuleusement retranscrit, contrairement à mon habitude.
=========================================================================================================================

Visitez http://www.ilovetabs.com pour d'autres tablatures "+R" pour guitare basse.

    
    

1 Commentaire

1 2 3 4 5
7 notes
Notes pour This World Basse Tab - (Selah Sue) | Slappyto : 5/5 sur 7 notes

En Live

Wario a commenté le topic [videothèque des sons] de mr gone il y a 2 jours
Lebollos59 vient tout juste de rejoindre la communauté Slappyto. Bienvenue ! il y a 3 jours
GregRock vient tout juste de rejoindre la communauté Slappyto. Bienvenue ! il y a 3 jours
Chris927 vient tout juste de rejoindre la communauté Slappyto. Bienvenue ! il y a 1 semaine
Greeshma vient tout juste de rejoindre la communauté Slappyto. Bienvenue ! il y a 1 semaine
Ludo ZEFISH vient tout juste de rejoindre la communauté Slappyto. Bienvenue ! il y a 1 semaine
Nicobass1793 vient tout juste de rejoindre la communauté Slappyto. Bienvenue ! il y a 1 semaine
Indonesiae vient tout juste de rejoindre la communauté Slappyto. Bienvenue ! il y a 1 semaine
Grandbill a commenté la tablature de Coup_de_pelle il y a 1 semaine