ConnexionConnexionInscription
B E A D G
181 connectés Aller à Sweepyto Guitare

Claude François - Magnolia Forever [ Artiste ]

Publié par le
21/03/2012
15308 vues
Avancé 1
http://www.youtube.com/watch?v=Wf-rymlV9MM
    
        

   Intro
G|----------------9----|----------------------|----------------9----|-------------------|
D|--7------------------|--3---------------5-6-|--7------------------|--3----------------|
A|---------------------|----------------------|---------------------|-------------------|
E|---------------------|----------------------|---------------------|-------------------|


                                                                                             

G|--------------------------|-----9-----7-----5-------|-------------------------|-------------------------|
D|--7--7--5--7-----------5--|--7-------------------5--|--3--3--2--3----------2--|--3--7----3--------------|
A|-----------------7--------|-------------------------|----------------3--------|----------------0--3--4--|
E|--------------------------|-------------------------|-------------------------|-------------------------|

                                                                                                                    


G|--------------------------|--------------------------|--------------------------|--------------------------|
D|--------------------------|-----7-----3--------------|--------------------------|--------------------------|
A|--5--5--3--5-----------3--|--5--------------5-----5--|--7--7--5--7-----7-----7--|--------------------------|
E|-----------------5--------|--------------------------|--------------------------|--0--0--1--1--2--2--4--4--| 


La chanson entière en pdf et guitar pro 5 se trouvent sur ma page tababass

http://junk1000.free.free.fr/menutabs.html
    
    

3 Commentaires

1 2 3 4 5
7 notes
Notes pour Magnolia Forever Basse Tab - (Claude François) | Slappyto : 5/5 sur 7 notes
#3
14/01/2016 19:19:32

Déterrage!

 

Coup de crise d'après le nouvel an où on met ce morceau pour délirer et je me retrouve à me dire: "pas mal cette ligne de basse"!

En revanche, le doigté utilisé sur cet tab n'est pas le meilleur à mon sens (chacun le sien...) et je pense qu'il y a des erreurs, je joue plutôt ça: (et j'ai vu la tab entière qui comporte aussi des erreurs je pense, mais la j'ai la flemme...) Millepat existes-tu toujours


G|----------------|----------------|----------------|----------------|
D|----------------|----------------|----------------|----------------|
A|----------------|----------------|----------------|----------------|
E|----------------|----------------|----------------|----------------|
 G|----------------|----------------|----------------|----------------|
D|----------------|----------------|----------------|----------------|
A|----------------|----------------|----------------|----------------|
E|----------------|----------------|----------------|----------------|
 G|----------------|----------------|----------------|----------------|
D|----------------|----------------|----------------|----------------|
A|----------------|----------------|----------------|----------------|
E|----------------|----------------|----------------|----------------|
 G|----------------|----------------|----------------|----------------|
D|----------------|----------------|----------------|----------------|
A|----------------|----------------|----------------|----------------|
E|----------------|----------------|----------------|----------------|

 
0
0
#2
18/04/2012 15:47:35
et merci ausi pour ton partage,sur ta page tab abass.
0
0
#1
03/04/2012 17:21:56

De la balle Merci !  

0
0

En Live

Furylax et MC82 ont commenté le topic [Une basse Rock pour une graaaaaande fille] de Furylax il y a 6 heures
Bilbaroud a voté pour le message de grobass il y a 7 heures
MC82 a commenté le topic [mon groupe the lookers] de Lookersbass il y a 10 heures
MC82 et grobass ont commenté le topic [[Ibanez GSR200] Votre avis ?] de Torus il y a 10 heures
Furylax vient tout juste de rejoindre la communauté Slappyto. Bienvenue ! il y a 12 heures
Ray a commenté le topic [Dégazage divers effets ] de Ray il y a 20 heures
Oscar2007 vient tout juste de rejoindre la communauté Slappyto. Bienvenue ! il y a 21 heures
Fendermk a voté pour le message de Captain Biftek il y a 1 jour