ConnexionConnexionInscription
B E A D G
154 connectés Aller à Sweepyto Guitare

Moody Blues - Nights in White Satin [ Artiste ]

Publié par le
21/03/2012
8200 vues
Moyen 1
http://www.youtube.com/watch?v=9muzyOd4Lh8
    
        

Tempo 6/8  Q= 80


G||-----------------|-----------9-----|------------------||------------------|------------------|
D||-----------------|--------------9--|--0---------------||*-----------------|------------------|
A||-----------------|--7--------------|------------------||*--7-----------7--|--5---------------|
E||--------------7--|-----------------|--------------7-7-||------------------|--------------7-7-|



|-----------------|-----------------|-----------------|-----------------|-----------------|
|-----------------|-----------------|-----------------|--5-----------5--|--3-----------3--|
|--7-----------7--|--5-----------5--|--3-----------3--|-----------------|-----------------|
|-----------------|-----------------|-----------------|-----------------|-----------------|



|-----------------||-----------------|--------------------|--------------------|--------------------|
|----------------*||-----------------|--7--7--7--7--7--7--|--7--7--7--7--7--7--|--------------------|
|--7--------L----*||--7-----------7--|--------------------|--------------------|--------------------|
|-----------------||-----------------|--------------------|--------------------|--8--8--8--8--8--8--|


 
|---------------------|------------------|--------------------|--------------------|
|---------------------|------------------|--------------------|--------------------|
|--------------10-----|--7------7--7--7--|--5--5--5--5--5--5--|--7--7--7--7--7--7--|
|--8--8--8--8------8--|------------------|--------------------|--------------------|


   
|--------------------|-----------------|-----------------|---------9-------|-----------------|
|--------------------|-----------------|-----------------|--------------9--|-----------------|
|--5--5--5--5--5--5--|--7-----------7--|--5-----------5--|--7--------------|--5-----------5--|
|--------------------|-----------------|-----------------|-----------------|-----------------|


 
|-----------------|-----------------|-----------------|-----------------|-----------------|
|-----------------|--5-----------5--|--3-----------3--|-----------------|-----------------|
|-----------------|-----------------|-----------------|--7-----------7--|--7-----------7--|
|--8-----------8--|-----------------|-----------------|-----------------|-----------------|


  
|-----------------|-----------9-----|-----------------|-----------------|-----------------|
|-----------------|--------------9--|-----------------|-----------------|--5-----------5--|
|--5-----------5--|--7--------------|--5-----------5--|--3-----------3--|-----------------|
|-----------------|-----------------|-----------------|-----------------|-----------------|



|-----------------|-----------------|--------------------|--------------------|--------------------|
|--3-----------3--|-----------------|--7--7--7--7--7--7--|--7--7--7--7--7--7--|--------------------|
|-----------------|--7-----------7--|--------------------|--------------------|--------------------|
|-----------------|-----------------|--------------------|--------------------|--8--8--8--8--8--8--|



|---------------------|--------------------|--------------------|--------------------|
|---------------------|--------------------|--------------------|--------------------|
|--------------10-----|--7--7--7--7--7--7--|--5--5--5--5--5--5--|--7--7--7--7--7--7--|
|--8--8--8--8------8--|--------------------|--------------------|--------------------|


                                                                           Solo de flûte..................
|--------------------|---------9--------|-----------------||---------------|---------------|
|--------------------|------------9--5--|-----------------||---------------|---------------|
|--5--5--5--5--5--5--|--7---------------|--7--------------||---------------|---------------|
|--------------------|------------------|-----------------||---------------|---------------|


...................Q.     
|---------------|------------------------|------------9-----|------------7-----|------------------|
|---------------|---------7/9--7/9--7/9--|---------------9--|---------------7--|------------------|
|---------------|------------------------|--7---------------|--5---------------|--3---------0--3--|
|---------------|------------------------|------------------|------------------|------------------|


   
|------------------|------------------|------------------|------------------|------------------|
|------------------|------------------|------------------|------------------|------------------|
|------------------|--7---------7-----|------------------|--7---------7-----|------------------|
|--7---------7--7--|---------------7--|--8---------7--7--|---------------7--|--8---------8--8--|


  
|------------------|------------------|------------------|--------------------|--------------------|
|------------------|------------------|------------------|--------------------|--------------------|
|------------------|------------------|------------------|--------------------|--7--7--7--7--7--7--|
|--5---------5--5--|--7---------7--7--|--5---------5--5--|--7--7--7--7--7--7--|--------------------|


  
|--------------------|--------------------|---------------------|--------------------|
|--------------------|--------------------|---------------------|--------------------|
|--5--5--5--5--5--5--|--3--3--3--3--3--3--|--7----7-7--7--7--7--|--5--5--5--5--5--5--|
|--------------------|--------------------|---------------------|--------------------|


  
|--------------------|--------------------|-----------------|------------------|-----------------|
|--------------------|--------------------|-----------------|------------------|-----------------|
|--7--7--7--7--7--7--|--5--5--5--5--5--5--|--7-----------7--|--5---------------|--7-----------7--|
|--------------------|--------------------|-----------------|--------------7-7-|-----------------|


       
|-----------------|-----------------|-----------------|-----------------|----------------||
|-----------------|-----------------|--5-----------5--|--3-----------3--|----------------||
|--5-----------5--|--3-----------3--|-----------------|-----------------|--7-------------||
|-----------------|-----------------|-----------------|-----------------|----------------||



    
    

1 Commentaire

1 2 3 4 5
2 notes
Notes pour Nights In White Satin Basse Tab - (Moody Blues) | Slappyto : 5/5 sur 2 notes
#1
22/03/2012 13:11:17
tres bonne tab chanson dantologie merci a toi
0
0

En Live

Wario a commenté le topic [videothèque des sons] de mr gone il y a 5 jours
Lebollos59 vient tout juste de rejoindre la communauté Slappyto. Bienvenue ! il y a 5 jours
GregRock vient tout juste de rejoindre la communauté Slappyto. Bienvenue ! il y a 6 jours
Chris927 vient tout juste de rejoindre la communauté Slappyto. Bienvenue ! il y a 1 semaine
Greeshma vient tout juste de rejoindre la communauté Slappyto. Bienvenue ! il y a 1 semaine
Ludo ZEFISH vient tout juste de rejoindre la communauté Slappyto. Bienvenue ! il y a 1 semaine
Nicobass1793 vient tout juste de rejoindre la communauté Slappyto. Bienvenue ! il y a 1 semaine
Indonesiae vient tout juste de rejoindre la communauté Slappyto. Bienvenue ! il y a 1 semaine
Grandbill a commenté la tablature de Coup_de_pelle il y a 1 semaine