ConnexionConnexionInscription
B E A D G
146 connectés Aller à Sweepyto Guitare

Queen - Another one bites the dust [ Artiste ]

Publié par le
11/05/2012
18192 vues
Débutant 4
http://www.youtube.com/watch?v=IDhVEQE86Xw&feat...
    
        

##### Partie A ######

G --------------| -------------------| --------------| ------------------- 
D --------------| -------------------| --------------| ------------------- 
A --------------| -------------------| --------------| ------------------- 
E 0---0---0----0| 0--0--3--0-5----5-3| 0---0---0----0| 0--0--3--0-5----5-3 


##### Partie B ######

G --------------| --------------| --------------| -------------- 
D ---------5----| --------------| ---------5----| -------------- 
A 3-3-3-4-5---3-| 3-3-3-4-5---3-| 3-3-3-4-5---3-| 0-0-0-1-2--2--
E --------------| --------------| --------------| ------------3-
    
    

2 Commentaires

1 2 3 4 5
9 notes
Notes pour Another One Bites The Dust Basse Tab - (Queen) | Slappyto : 2/5 sur 9 notes
#2
01/06/2012 20:26:26

Partie B : je dirais plutôt

 

G|----------------|----------------|----------------|----------------|
D|----------5-----|----------------|----------5-----|----------------|
A|3-3-3-4-5-------|3-3-3-4-5-------|3-3-3-4-5-------|----------------|
E|------------3---|------------3---|------------3---|5-5-5-6-7-7-3---|

0
0
#1
01/06/2012 16:08:13
je vois plutos ça non 33345en a 5 en d et 3 en e
0
0

En Live

Yvesson a commenté le topic [Amateurs de photographie, bon-jour/soir !] de cha0s-the0ry il y a 53 minutes
Yvesson a commenté le topic [Le Topic du Freepost 7] de Vikie il y a 1 heure
Yvesson, sam et YannGGP ont commenté le topic [La mort de Slappyto?] de kurt il y a 1 heure
Glimmerkajal vient tout juste de rejoindre la communauté Slappyto. Bienvenue ! il y a 2 jours
Wario a commenté le topic [videothèque des sons] de mr gone il y a 1 semaine
Lebollos59 vient tout juste de rejoindre la communauté Slappyto. Bienvenue ! il y a 1 semaine
GregRock vient tout juste de rejoindre la communauté Slappyto. Bienvenue ! il y a 1 semaine
Chris927 vient tout juste de rejoindre la communauté Slappyto. Bienvenue ! il y a 2 semaines
Greeshma vient tout juste de rejoindre la communauté Slappyto. Bienvenue ! il y a 2 semaines