ConnexionConnexionInscription
B E A D G
161 connectés Aller à Sweepyto Guitare

Gorillaz - Stylo [ Artiste ]

Publié par le
21/03/2012
4655 vues
Débutant 2
http://www.youtube.com/watch?v=nhPaWIeULKk&ob=a...
    
        

Etant une boucle au synthé, ne vous attendez pas à plus de deux riffs.


Riff principal.

G-------------------------------1--0------------|
D-------------------------------------3--1------|
A-1--3-3----1--3-3----1--3-3--------------------|
E-----------------------------------------------|

Il y a une autre façon de jouer le riff.

G-------------------------------1-1-0-0------------|
D---------------------------------------3-3-1-1----|
A-1--3-3----1--3-3----1--3-3-----------------------|
E--------------------------------------------------|


Au chorus vous devrez changer de cordes pour jouer sur 
les cordes de Ré et de Sol 
(Le chorus débute quand il chante "Overload, overload...)

G-------------------------------1--0------------|
D-1--3-3----1--3-3----1--3-3----------3--1------|
A-----------------------------------------------|
E-----------------------------------------------|

C'est tout, écoutez la chanson pour le timing.


    
    

2 Commentaires

1 2 3 4 5
6 notes
Notes pour Stylo Basse Tab - (Gorillaz) | Slappyto : 5/5 sur 6 notes
#2
17/06/2012 22:54:32
Merci à toi !
0
0
#1
14/06/2012 14:08:02
sympathique !
0
0

En Live

Chirac et Mushaloni ont commenté le topic [Besoin d'un bricoleur !] de Mushaloni il y a 2 heures
Manyak et Wario ont commenté le topic [Photos de vos basses] de lucas il y a 1 jour