ConnexionConnexionInscription
B E A D G
144 connectés Aller à Sweepyto Guitare

Sting - Heavy cloud, no rain [ Artiste ]

Publié par le
11/05/2012
3953 vues
Débutant 1
http://www.youtube.com/watch?v=i5x2ipnEer4&feat...
    
        

Sting
Heavy cloud, no rain

pdf et guitar pro5 sur Tababass
http://junk1000.free.free.fr/menutabs.html


Intro et couplet 1

      A7                                   slide                                                      
G|-----------------------|-----------------------|	|-------|------------------|
D|-----------5-----7--7--|-----------5--7--------|7x 	|-------|------------5--7--|
A|--------7-----7--------|--------7--------3---5-|	|-------|---------7--------|
E|--5--------------------|-----------------------|	|--5----|------------------|



Couplet 2,3,4

    A7                                                                                                   
G|-----------------------|----------------------|	
D|-----------5-----7--7--|-----------5--7-------|4x 
A|--------7-----7--------|--------7--------3--5-|	
E|--5--------------------|----------------------|	



    C7                                                   E                                                  
G|---------------------------|--------------------|-----------------------|---------------------|
D|------------8------10--10--|--------8--9--10----|-----------------------|---------------------|
A|--------10-----10----------|----10--------------|--7--------5--6--7-----|----7----7-----------|
E|--8------------------------|--------------------|--------7-----------0--|------------6----6---|


  A7                                                                                                                      
------------------------|-------------------------|-------|-----------------|
------------5-----7--7--|-------------5--7--------|-------|-----------5--7--|
---------7-----7--------|----------7--------3b----|-------|--------7--------|
-5----------------------|-------------------------|--5----|-----------------|


Break
 2.24 à 2.42

G|--------------------|--------------------------|----------------------|--------------------------|
D|--------------------|--------------------------|----------------------|--------------------------|
A|--3---3---5---5--5--|-----------5--5--5--5--5--|----------------------|-----------5--5--5--5--5--|
E|--------------------|--5--5--5-----------------|--5----5----7---7--7--|--8--8--8-----------------|


                                                                                                     
-------------------------|----------------------------|----------------------|----------------------|
------------8--9--10-----|--10------8------10----10---|----------------------|----------------------|
--------10---------------|------10-----10-------------|--7-------5--6--7-----|--7--7--7-------------|
--8-------------------8--|----------------------------|-------7-----------0--|-----------0--6----6--|
    
    

0 Commentaires : réagissez !

1 2 3 4 5
0 notes
Aucun commentaire !

En Live

Yvesson a commenté le topic [Le Topic du Freepost 7] de Vikie il y a 1 heure
Yvesson, sam et YannGGP ont commenté le topic [La mort de Slappyto?] de kurt il y a 1 heure
Glimmerkajal vient tout juste de rejoindre la communauté Slappyto. Bienvenue ! il y a 2 jours
Wario a commenté le topic [videothèque des sons] de mr gone il y a 1 semaine
Lebollos59 vient tout juste de rejoindre la communauté Slappyto. Bienvenue ! il y a 1 semaine
GregRock vient tout juste de rejoindre la communauté Slappyto. Bienvenue ! il y a 1 semaine
Chris927 vient tout juste de rejoindre la communauté Slappyto. Bienvenue ! il y a 2 semaines
Greeshma vient tout juste de rejoindre la communauté Slappyto. Bienvenue ! il y a 2 semaines