ConnexionConnexionInscription
B E A D G
148 connectés Aller à Sweepyto Guitare

Santana - Oye Como Va [ Artiste ]

Publié par le
31/07/2012
9329 vues
Débutant 1
http://www.youtube.com/watch?v=ay1duK1EmR0
    
        

*************************
* Santana : Oye Como Va *
*************************

mesure = 4/4, tempo = 130, subdivision (-) = croche
suggestion de réglages :
    micro : 100% manche
    EQ = 100% bass / 50% mid / 50% treble

Intro :
 |: 4x                              :|
G|--------|----7-5-|--------|----7-5-|--------|--------|--------|--------|
D|7-+--7+-|---7----|7-+--7+-|--------|7+77+777|+777----|7+7+77+-|--------|
A|-------5|-+------|-------5|-+------|--------|----555-|-------5|+55+--5+|
E|--------|--------|--------|--------|--------|--------|--------|--------|

Refrain :
 |: 2x                              :|
G|--------|----7-5-|--------|----7-5-|--------|--------|
D|7-+--7+-|---7----|7-+--7+-|--------|7+77+777|+777----|
A|-------5|-+------|-------5|-+------|--------|----555-|
E|--------|--------|--------|--------|--------|--------|

Couplet :
 |: 5x                              :|: 3x            :|
G|--------|----7-5-|--------|----7-5-|--------|--------|
D|7-+--7+-|---7----|7-+--7+-|--------|7-+--7+-|-45-6-7-|
A|-------5|-+------|-------5|-+------|-------5|+-------|
E|--------|--------|--------|--------|--------|--------|

 |: 2x                              :|                               /-3\
G|--------|----7-5-|--------|----7-5-|--------|----7-5-|--------|--------|
D|7-+--7+-|---7----|7-+--7+-|--------|7-+--7+-|---7----|77777777|777777-7|
A|-------5|-+------|-------5|-+------|-------5|-+------|--------|--------|
E|--------|--------|--------|--------|--------|--------|--------|--------|

Couplet 2 :
 |: 3x                              :|                 
G|--------|----7-5-|--------|----7-5-|--------|----7-5-|--------|----7-5-|
D|7-+--7+-|---7----|7-+--7+-|--------|7-+--7+-|---7----|7-+--7+-|---7----|
A|-------5|-+------|-------5|-+------|-------5|-+------|-------5|-+------|
E|--------|--------|--------|--------|--------|--------|--------|--------|

                   |: 3x            :|
G|--------|----7-5-|--------|----7-5-|--------|----7-5-|--------|--------|
D|7-+--7+-|--------|7-+--7+-|---7----|7-+--7+-|--------|7+77+777|+777----|
A|-------5|-+------|-------5|-+------|-------5|-+------|--------|----555-|
E|--------|--------|--------|--------|--------|--------|--------|--------|

Refrain 2 :
 |: 2x                              :|                               /-3\
G|--------|----7-5-|--------|----7-5-|--------|--------|--------|--------|
D|7-+--7+-|---7----|7-+--7+-|---7----|--------|--------|--------|--------|
A|-------5|-+------|-------5|-+------|55555555|55555555|55555555|555555-5|
E|--------|--------|--------|--------|--------|--------|--------|--------|

Couplet 3 :
 |: 2x                              :|
G|--------|----7-5-|--------|----7-5-|--------|----7-5-|--------|----7-5-|--------|----7-5-|--------|----7-5-|
D|7-+--7+-|---7----|7-+--7+-|--------|7-+--7+-|---7----|7-+--7+-|---7----|7-+--7+-|--------|7-+--7+-|---7----|
A|-------5|-+------|-------5|-+------|-------5|-+------|-------5|-+------|-------5|-+------|-------5|-+------|
E|--------|--------|--------|--------|--------|--------|--------|--------|--------|--------|--------|--------|

G|--------|----7-5-|--------|----7-5-|--------|----7-5-|--------|----7-5-|--------|--------|--------|--------|
D|7-+--7+-|---7----|7-+--7+-|--------|7-+--7+-|---7----|7-+--7+-|---7----|7+77+777|+777----|7+7+77+-|--------|
A|-------5|-+------|-------5|-+------|-------5|-+------|-------5|-+------|--------|----555-|-------5|+55+--5+|
E|--------|--------|--------|--------|--------|--------|--------|--------|--------|--------|--------|--------|

=========================================================================================================================
Légende : + = étouffer la corde (stopper le son)
          /-3\ = triolet
          |: Nx :| = répéter N fois le passage entre |: et :|
=========================================================================================================================

Visitez http://www.ilovetabs.com pour d'autres tablatures "+R" pour guitare basse.

    
    

0 Commentaires : réagissez !

1 2 3 4 5
0 notes
Aucun commentaire !

En Live

Glimmerkajal vient tout juste de rejoindre la communauté Slappyto. Bienvenue ! il y a 2 jours
Wario a commenté le topic [videothèque des sons] de mr gone il y a 1 semaine
Lebollos59 vient tout juste de rejoindre la communauté Slappyto. Bienvenue ! il y a 1 semaine
GregRock vient tout juste de rejoindre la communauté Slappyto. Bienvenue ! il y a 1 semaine
Chris927 vient tout juste de rejoindre la communauté Slappyto. Bienvenue ! il y a 2 semaines
Greeshma vient tout juste de rejoindre la communauté Slappyto. Bienvenue ! il y a 2 semaines
Ludo ZEFISH vient tout juste de rejoindre la communauté Slappyto. Bienvenue ! il y a 2 semaines
Nicobass1793 vient tout juste de rejoindre la communauté Slappyto. Bienvenue ! il y a 2 semaines
Indonesiae vient tout juste de rejoindre la communauté Slappyto. Bienvenue ! il y a 2 semaines