ConnexionConnexionInscription
B E A D G
146 connectés Aller à Sweepyto Guitare

Zazie - Rodéo [ Artiste ]

Publié par le
09/10/2012
7213 vues
Débutant 1
http://www.deezer.com/track/2576089
    
        

 Intro:
                                                    :       x2       :
G|----------------|----------------|----------------|----------------|
D|----------------|----------------|----------------|----------------|
A|----------------|----------------|----------------|----------------|
E|----------------|----------------|----------------|-4-4-4-4-4-4-4-4|


G|----------------|----------------|----------------|----------------|
D|----------------|----------------|----------------|----------------|
A|-6-----6-6-----6|-7-----7-7-----7|----------------|----------------|
E|----------------|----------------|-7-----7-7-----7|-6-----6-6-----6|

G|----------------|----------------|----------------|----------------|
D|----------------|----------------|----------------|----------------|
A|----------------|----------------|-7-----7-7-----7|-C-----C-C-----C|
E|-4-----4-4-----4|-6-----6-6-----6|----------------|----------------|
                                                        
 Refrain:                                                 (C=12)             

 :                                 x2                                :
G|----------------|----------------|----------------|----------------|
D|----------------|----------------|----------------|----------------|
A|---------2------|---------2------|-7-7-7-7-7-7-7-6|-4-4-4-4-4-4-4-4|
E|-2-4-4-4---4-4-4|-2-4-4-4---4-4-4|----------------|----------------|

 Couplet:

G|----------------|----------------|----------------|----------------|
D|----------------|----------------|----------------|----------------|
A|-6-6-6-6-6-6-6-6|-7-7-7-7-7-7-7-7|----------------|----------------|
E|----------------|----------------|-7-7-7-7-7-7-7-7|-6-6-6-6-6-6-6-6|

G|----------------|----------------|----------------|----------------|
D|----------------|----------------|----------------|----------------|
A|----------------|----------------|-7-7-7-7-7-7-7-7|-C-C-C-C-C-C-C-C|
E|-4-4-4-4-4-4-4-4|-6-6-6-6-6-6-6-6|----------------|----------------|

 Refrain
 
 Couplet

 Pont:

G|----------------|----------------|----------------|----------------|
D|----------------|----------------|----------------|----------------|
A|----------------|----------------|-7-7-7-7-7-7-7-7|-C-C-C-C-C-C-C-C|
E|-4-4-4-4-4-4-4-4|-6-6-6-6-6-6-6-6|----------------|----------------|

 Refrain x2
    
    

0 Commentaires : réagissez !

1 2 3 4 5
1 note
Notes pour Rodéo Basse Tab - (Zazie) | Slappyto : 4/5 sur 1 note
Aucun commentaire !

En Live

Wario a commenté le topic [videothèque des sons] de mr gone il y a 4 jours
Lebollos59 vient tout juste de rejoindre la communauté Slappyto. Bienvenue ! il y a 5 jours
GregRock vient tout juste de rejoindre la communauté Slappyto. Bienvenue ! il y a 5 jours
Chris927 vient tout juste de rejoindre la communauté Slappyto. Bienvenue ! il y a 1 semaine
Greeshma vient tout juste de rejoindre la communauté Slappyto. Bienvenue ! il y a 1 semaine
Ludo ZEFISH vient tout juste de rejoindre la communauté Slappyto. Bienvenue ! il y a 1 semaine
Nicobass1793 vient tout juste de rejoindre la communauté Slappyto. Bienvenue ! il y a 1 semaine
Indonesiae vient tout juste de rejoindre la communauté Slappyto. Bienvenue ! il y a 1 semaine
Grandbill a commenté la tablature de Coup_de_pelle il y a 1 semaine