ConnexionConnexionInscription
B E A D G
143 connectés Aller à Sweepyto Guitare

Red Hot Chili Peppers - Otherside [ Artiste ]

Publié par le
02/10/2012
6716 vues
Débutant 2
http://www.youtube.com/watch?v=rn_YodiJO6k
    
        

Intro:	               (0:00)
G ------------------------------------------------------------------------------------
D ------------------------------------------------------------------------------------
A -----------------------3--3-3-3-----------------------------------------------------
E -5--5-5-3--1--1-1-1------------h0-3--3-3-3------------------------------------------

Chorus1:
G ------------------------------------------------------------------------------------
D ------------------------------------------------------------------------------------
A -----------------------3--3-3-3-----3--2--------------------------------------------
E -5--5-5-3--1--1-1-1------------h0-3-------3-----------------------------------------

G ------------------------------------------------------------------------------------
D ------------------------------------------------------------------------------------
A -----------------------3--3-3-3--------5--------------------------------------------
E -5--5-5-3--1--1-1-1------------h0-3------3------------------------------------------

G ------------------------------------------------------------------------------------
D ------------------------------------------------------------------------------------
A -----------------------3--3-3-3-----------------------------------------------------
E -5--5-5-3--1--1-1-1------------h0-3--3-3-3------------------------------------------

Verse:


G ------------------------------------------------------------------------------------
D ------------------------------------------------------------------------------------
A ------------------------------------------------------------------------------------
E -5---5-b5r-5-5/ 12---12-b12r-12-12--------------------------------------------------

	           (0:44)
G ------------------------------------------------------------------------------------
D ------------------------------------------------------------------------------------
A ------------------------------------------------------------------------------------
E -3----(3)-(3)--------5----(5)-(5)---------------------------------------------------
)x3	           (0:50)
G ------------------------------------------------------------------------------------
D ------------------------------------------------------------------------------------
A ------------------------------------------------------------------------------------
E -5---5-b5r-5-5/ 12---12-b12r-12-12--------------------------------------------------
)x2	            (1:02)
G ------------------------------------------------------------------------------------
D ------------------------------------------------------------------------------------
A ------------------------------------------------------------------------------------
E -3----(3)-(3)--------5----(5)-(5)---------------------------------------------------
	             (1:10)
G ------------------------------------------------------------------------------------
D ------------------------------------------------------------------------------------
A ------------------------------------------------------------------------------------
E -3---3-3-3—3-b3r-3-b3r-3-b3r-3-b3r-----5---5-5-5--50505050--------------------------

Chorus 2:		             (1:18)

G ------------------------------------------------------------------------------------
D ------------------------------------------------------------------------------------
A -------------------------3--3-3-3---------------------------------------------------
E -5--5-5-3--1--1-1-1--------------h0-3--3-3-3----------------------------------------

G ------------------------------------------------------------------------------------
D ------------------------------------------------------------------------------------
A -------------------------3--3-5-3------3-2------------------------------------------
E -5--5-5-3--1--1-1-1--------------h0-3-------3---------------------------------------

G ------------------------------------------------------------------------------------
D ------------------------------------------------------------------------------------
A -------------------------3--3-3-3---------------------------------------------------
E -5--5-5-3--1--1-1-1--------------h0-3--3-3-3----------------------------------------

Verse:
 x3		     (1:41)

G ------------------------------------------------------------------------------------
D ------------------------------------------------------------------------------------
A ------------------------------------------------------------------------------------
E -5---5-b5r-5-5/ 12---12-b12r-12-12--------------------------------------------------

	               (1:52)
G ------------------------------------------------------------------------------------
D ------------------------------------------------------------------------------------
A ------------------------------------------------------------------------------------
E -3----(3)-(3)--------5----(5)-(5)---------------------------------------------------
x3	               (2:01)
G ------------------------------------------------------------------------------------
D ------------------------------------------------------------------------------------
A ------------------------------------------------------------------------------------
E -5---5-b5r-5-5/ 12---12-b12r-12-12--------------------------------------------------

x2	                (2:12)
G ------------------------------------------------------------------------------------
D ------------------------------------------------------------------------------------
A ------------------------------------------------------------------------------------
E -3----(3)-(3)--------5----(5)-(5)---------------------------------------------------

                        (2:20)
G ------------------------------------------------------------------------------------
D ------------------------------------------------------------------------------------
A ------------------------------------------------------------------------------------
E -3---3-3-3—3-b3r-3-b3r-3-b3r-3-b3r-----5---5-5-5--50505050--------------------------


Chorus 3:		                (2:28)
G ------------------------------------------------------------------------------------
D ------------------------------------------------------------------------------------
A ---------------------3--3-3-3--------32---------------------------------------------
E -5--5-5-3--1--1-1-1------------h0-3-----3-------------------------------------------

G ------------------------------------------------------------------------------------
D ------------------------------------------------------------------------------------
A ---------------------3--3-3-3-------------------------------------------------------
E -5--5-5-3--1--1-1-1------------h0-3--3-2-5------------------------------------------

G ------------------------------------------------------------------------------------
D ------------------------------------------------------------------------------------
A ---------------------3--3-3-3-------------------------------------------------------
E -5--5-5-3--1--1-1-1----------h0-3--3-3-3--------------------------------------------

Bridge:	                          (2:51)
G ------------------------------------------------------------------------------------
D ------------------------------------------------------------------------------------
A ----7-5-7----7--5-7-----------------------------10--9-------------------------------
E -0-----------0---------0-5-7--0--5--7--8--7------------10---------------------------

G ------------------------------------------------------------------------------------
D ------------------------------------------------------------------------------------
A ----7-5-7----7--5-7-----------------------10-9-7-9-10-7-----------------------------
E -0-----------0---------0-5-7--0--5--7--8-------------------10-----------------------

G ------------------------------------------------------------------------------------
D ------------------------------------------------------------------------------------
A ----7-5-7----7--5-7-----------------------------10--9-------------------------------
E -0-----------0---------0-5-7--0--5--7--8--7------------10---------------------------

G ------------------------------------------------------------------------------------
D ------------------------------------------------------------------------------------
A ----7-5-7----7--5-7-----------------------10-9-7-9-10-7-----------------------------
E -0-----------0---------0-5-7--0--5--7--8-------------------10-----------------------


Outro:	                             (3:21)
G -------------------------------------------------------------------------------------
D -------------------------------------------------------------------------------------
A ------------------------3333333-------------32---------------------------------------
E -5-5-5-5-3--1-1-1-1-1-----------h0-3--3-3------3-------------------------------------

G -------------------------------------------------------------------------------------
D -------------------------------------------------------------------------------------
A ------------------------3--3-3-3-----------------------------------------------------
E -5--5-5-3--1-1-1-1-1------------h0-3-3-3-3-3-----------------------------------------

G -------------------------------------------------------------------------------------
D -----------3-3-3-3-3-5-3-------------------------------------------------------------
A ----------------------------3-3-3-5-3-----3-2----------------------------------------
E -5--5-5-3-----------------------------03-------3-------------------------------------

G -------------------------------------------------------------------------------------
D ---------------------------------------5-5-------------------------------------------
A -----------------------3--3-3-3------------------------------------------------------
E -5--5-5-3--1--1-1-1------------h0-3-------0--1--3------------------------------------

G -------------------------------------------------------------------------------------
D -------------------------------------------------------------------------------------
A -----------------------3--3-3-3-----------------------------------------------------
E -5--5-5-3--1--1-1-1------------h0-3--3-0-1-3-----------------------------------------

G -----------------------------5-5-5-5-7-0-0-0-3-5-------------------------------------
D -----------------3-3-3-3-3-----------------------------------------------------------
A ------------3-5----------------------------------------0-----------------------------
E -5--5-5-5----------------------------------------------------------------------------
    
    

2 Commentaires

1 2 3 4 5
0 notes
#2
02/10/2012 20:17:12
merci, bon taff...
0
0
#1
02/10/2012 18:18:09

Ca marche, mais il n'y a qu'un "T" a outro, si je ne m'abuse...  

0
+1

En Live

Saikodoll vient tout juste de rejoindre la communauté Slappyto. Bienvenue ! il y a 1 jour
Bertrand44 vient tout juste de rejoindre la communauté Slappyto. Bienvenue ! il y a 2 jours
OLIVIER59500 vient tout juste de rejoindre la communauté Slappyto. Bienvenue ! il y a 2 jours
Jazzbassfoufou vient tout juste de rejoindre la communauté Slappyto. Bienvenue ! il y a 3 jours
MrSpit a commenté le topic [Sandberg Fretless] de MrSpit il y a 3 jours