ConnexionConnexionInscription
B E A D G
136 connectés Aller à Sweepyto Guitare

Muse - Muscle Museum [ Artiste ]

Publié par le
11/10/2012
5008 vues
Débutant 3
http://www.youtube.com/watch?v=TYqmDqFh038
    
        

Intro:  
G::----------------|
D::4---4---4---4---|
A::--4---4---4---4-|
E::----------------|
 

Verse:
G::----------------|----------------|--------------6-|7-4-------------|
D::4---4---4---4---|----------------|4---4---4---4---|----4-------2-3-|
A::--4---4---4---4-|4---4---4---4---|--4---4---4-----|------5-2-5-----|
E::----------------|--4---4---4---4-|----------------|----------------|
 

PreChorus:
G::----------------|----------------| 
D::----------------|----------------| 
A::----------------|----------------| 
E::2-2-2-----------|4-4-4-----------| 
 

G::---------|
D::---------|
A::----5/16-|
E::---------|
 

Chorus:      
G::------------------|-----------------------|
D::------4--------4--|-----------------------|
A::------------------|4-4-4--4-4--4-4-4--4-4-|
E::2-2-2----2-2-2----|-----------------------|
 
G::------------------|---------------------------|
D::------4--------4--|---------------------------|
A::------------------|2-2-2--2-2--2-2-2--2-------|
E::2-2-2----2-2-2----|---------------------5-4-5-|
 
G::------------------|-----------------------|
D::------4--------4--|-----------------------|
A::------------------|4-4-4--4-4--4-4-4--4-4-|
E::2-2-2----2-2-2----|-----------------------|
 
G::------------------|-----------------------|
D::------4--------4--|-------------------0-2-|
A::------------------|2-2-2--2-2--2-2-2------|
E::2-2-2----2-2-2----|-----------------------|
 

Riff1:
G::----------------|----------------|----------------|----------------|
D::----2-------2---|----3-------3---|4---4---4---4---|4---4---4---4---|
A::----------------|----------------|--4---4---4---4-|--4---4---4---4-|
E::0-0---0-0-0---0-|1-1---1-1-1---1-|----------------|----------------|
 

Bridge/End:
G::----------------|----------------|----------------|-----------------|
D::----2-------2---|----3-------3---|4-4-4-4-2-2-2-2-|-----------------|
A::----------------|----------------|----------------|5-5-5-5-5-5-5/12-|
E::0-0---0-0-0---0-|1-1---1-1-1---1-|----------------|-----------------|
                                                        
G::----------------|----------------|----------------|-----------------|
D::----2-------2---|----3-------3---|4-4-4-4-2-2-2-2-|-----------------|
A::----------------|----------------|----------------|5-5-5-5-5-5------|
E::0-0---0-0-0---0-|1-1---1-1-1---1-|----------------|------------10\0-|
          
G::----------------|----------------|----------------|----------------|
D::----------------|----------------|----------------|----------------|
A::0-0-0-0-0-0-0-0-|----------------|--------2-2-0-4-|--------2-2-0-4-|
E::----------------|4-4-4-4-4-4-4-4-|2-2-2-2---------|2-2-2-2---------|
                                                        
G::----------------|----------------|----------------|
D::----------------|----------------|----------------|
A::------0-2-2-0---|------0-2-2-0-4-|----------------|
E::2-2-4---------4-|2-2-4-----------|2---------------|
                                   
    
    

0 Commentaires : réagissez !

1 2 3 4 5
0 notes
Aucun commentaire !

En Live

Wario a commenté le topic [videothèque des sons] de mr gone il y a 5 jours
Lebollos59 vient tout juste de rejoindre la communauté Slappyto. Bienvenue ! il y a 5 jours
GregRock vient tout juste de rejoindre la communauté Slappyto. Bienvenue ! il y a 6 jours
Chris927 vient tout juste de rejoindre la communauté Slappyto. Bienvenue ! il y a 1 semaine
Greeshma vient tout juste de rejoindre la communauté Slappyto. Bienvenue ! il y a 1 semaine
Ludo ZEFISH vient tout juste de rejoindre la communauté Slappyto. Bienvenue ! il y a 1 semaine
Nicobass1793 vient tout juste de rejoindre la communauté Slappyto. Bienvenue ! il y a 1 semaine
Indonesiae vient tout juste de rejoindre la communauté Slappyto. Bienvenue ! il y a 1 semaine
Grandbill a commenté la tablature de Coup_de_pelle il y a 1 semaine