ConnexionConnexionInscription
B E A D G
149 connectés Aller à Sweepyto Guitare

Star Wars - The Imperial March (riff principal) [ Artiste ]

Publié par le
11/12/2012
16574 vues
Débutant 1
http://www.youtube.com/watch?v=-bzWSJG93P8
    
        

G -------------8- (répéter 4x)
D -5-5-555-5-5--- 
A -------------6-
E ---------------

G ---------------------7-7-7-8---------- 
D --5-5-5---8-5---8-5----------8----8-5-
A --------6-----6----------------9-6----
E --------------------------------------

G -12----12-11---------------------------------------------------5-7-----
D -------------14.14.13.14----11-10------------------4----6-8--5---------
A ----10--------------------11------13.13.12.13---6----6-----------------
E -----------------------------------------------------------------------

G -12----12-11------------------------------------------------------
D -------------14.14.13.14----11-10------------------4---8-5---8-5--
A ----10--------------------11------13.13.12.13---6----6-----6------
E ------------------------------------------------------------------

G -------------8- 
D -5-5-555-5-5--- 
A -------------6-
E ---------------

C'est le thème principal, dans le reste de la chanson c'est la même chose.


    
    

13 Commentaires

1 2 3 4 5
0 notes
#13
17/09/2013 21:00:47
Je viens de finir la tablature, elle va être validée par les modérateurs !
0
0
#12
17/09/2013 14:03:54
on attend toujour la suite
0
0
#11
24/12/2012 15:01:02
oui;oui la suite please!!!
0
0
#10
18/12/2012 19:09:24
Nickel  
0
0
#9
13/12/2012 23:28:36

Don't worry !


Le recensement de 2011 en Angleterre et au Pays de Galles, dont les résultats viennent d’être publiés, font de la religion «Chevalier Jedi» la sixième foi   derrière le judaïsme, le sikhisme, l'hindouisme, l'islam et le christianisme, rapporte le Guardian.

0
+2

En Live

Wario a commenté le topic [videothèque des sons] de mr gone il y a 5 jours
Lebollos59 vient tout juste de rejoindre la communauté Slappyto. Bienvenue ! il y a 5 jours
GregRock vient tout juste de rejoindre la communauté Slappyto. Bienvenue ! il y a 6 jours
Chris927 vient tout juste de rejoindre la communauté Slappyto. Bienvenue ! il y a 1 semaine
Greeshma vient tout juste de rejoindre la communauté Slappyto. Bienvenue ! il y a 1 semaine
Ludo ZEFISH vient tout juste de rejoindre la communauté Slappyto. Bienvenue ! il y a 1 semaine
Nicobass1793 vient tout juste de rejoindre la communauté Slappyto. Bienvenue ! il y a 1 semaine
Indonesiae vient tout juste de rejoindre la communauté Slappyto. Bienvenue ! il y a 1 semaine
Grandbill a commenté la tablature de Coup_de_pelle il y a 1 semaine