ConnexionConnexionInscription
B E A D G
151 connectés Aller à Sweepyto Guitare

Bruno Mars - Locked Out of Heaven [ Artiste ]

Publié par le
27/12/2012
10442 vues
Moyen 1
http://www.youtube.com/watch?v=e-fA-gBCkj0
    
        

G ------------------------------------
D ------------------------------------
A -3-5--3-5-3-0-1--0-1-0--------------
E -----------------------1--33333-333-

Bien être calé niveau rythme et sur la longueur des notes, elles ne doivent pas trop sonner.
    
    

2 Commentaires

1 2 3 4 5
2 notes
Notes pour Locked Out Of Heaven Basse Tab - (Bruno Mars) | Slappyto : 5/5 sur 2 notes
#2
05/02/2013 17:57:48
pour compléter

à 0:50

     F                                             Am                                             

G||-----------------------|----------------------|------------------------|------------------------|
D||-----------------------|----------------------|------5--7-------5--7--|-------5--7------5--7--|
A||-----------------------|----------------------|--0----------0----------|--0----------0----------|
E||--1----1----1----1----|--1----1----1----1---|-------------------------|------------------------|


Refrain
     Bb                                                               Gm                                         
G||----------------------|----------------------|----------------------|----------------------|
D||----------------------|----------------------|----------------------|----------------------|
A||----------------------|----------------------|----------------------|----------------------|
E||--6----6----6----6----|--6----6----6----6--|--3----3----3----3----|--3----3----3----3--|


  F                                             C                                          
----------------------|----------------------|----------------------|----------------------|
----------------------|----------------------|----------------------|----------------------|
----------------------|----------------------|--3----3----3----3---|--3----3----3----3---|
--1----1----1----1---|--1----1----1----1---|----------------------|----------------------|

De la balle cette chanson
0
0
#1
27/12/2012 16:23:28
Cool
0
0

En Live

Cell a commenté le topic ["recherche" Digitech bass synth wah] de Cell il y a 4 heures
Cell et yvesson ont commenté le topic [Le Topic du Freepost 7] de Vikie il y a 4 heures
Cell a commenté le topic ["recherche" Digitech bass synth wah] de Cell il y a 4 heures
Yvesson a commenté le topic [Amateurs de photographie, bon-jour/soir !] de cha0s-the0ry il y a 17 heures
Yvesson, sam et YannGGP ont commenté le topic [La mort de Slappyto?] de kurt il y a 17 heures
Glimmerkajal vient tout juste de rejoindre la communauté Slappyto. Bienvenue ! il y a 3 jours
Wario a commenté le topic [videothèque des sons] de mr gone il y a 1 semaine
Lebollos59 vient tout juste de rejoindre la communauté Slappyto. Bienvenue ! il y a 1 semaine
GregRock vient tout juste de rejoindre la communauté Slappyto. Bienvenue ! il y a 1 semaine
Chris927 vient tout juste de rejoindre la communauté Slappyto. Bienvenue ! il y a 2 semaines