ConnexionConnexionInscription
B E A D G
114 connectés Aller à Sweepyto Guitare

Oxmo Puccino & the Jazzbastards - Tirer des traits [ Artiste ]

Publié par le
26/02/2013
2526 vues
Débutant 1
http://www.youtube.com/watch?v=sB5mnREFZzc
    
        

intro

G||-----------------------------|
D||-----------------------------|
A||--3--------3--5--6--5--3-----|
E||--------3-----------------3--|


Couplet
     F           C          G#         C
G||------------------------------------------------------------|
D||------------------------------------------------------------|
A||--8----8----------------------------3-----3--5--6--5--3-----|
E||-------------8----8------4----4--------3-----------------3--|


Refrain

G||--------------------------------------------|
D||--------------------------------------------|
A||--8----8----3----3----------------3----3----|
E||------------------------4----4--------------|
    
    

0 Commentaires : réagissez !

1 2 3 4 5
0 notes
Aucun commentaire !

En Live

Stub vient tout juste de rejoindre la communauté Slappyto. Bienvenue ! il y a 13 heures
KaKemono et wire ont commenté le topic [basse acoustique réelle différence ???] de oliv'bass il y a 1 jour
FIblues vient tout juste de rejoindre la communauté Slappyto. Bienvenue ! il y a 1 jour
Angel a voté pour le message de Wario il y a 5 jours
Steph83136 vient tout juste de rejoindre la communauté Slappyto. Bienvenue ! il y a 6 jours
Jmeposito vient tout juste de rejoindre la communauté Slappyto. Bienvenue ! il y a 1 semaine