ConnexionConnexionInscription
B E A D G
122 connectés Aller à Sweepyto Guitare

Leela James - Miss you [ Artiste ]

Publié par le
02/02/2013
2887 vues
Moyen 1
http://www.youtube.com/watch?v=3lrtnmysr2U
    
        

Miss You                                                       
Leela James

Fichiers gp5 et pdf = http://junk1000.free.free.fr/menutabs.html

Couplet et Refrain
G|-------------------------|----------------------------|-----6-----------------|-----6-------------------|
D|-----6-------------4--6--|-----6----------------4--6--|-----------------------|-------------------4--6--|
A|-------------------------|-----------------4h-6-------|--4------6----7----6---|--4----------------------|
E|--4------6----7----------|--4------6----7-------------|-----------------------|---------7----4----------|



-------------------------|----------------------------|-----6------------------|-----6-----------4--------|
-----6-------------4--6--|-----6----------------4--6--|------------------------|-----------4--6-----------|
-------------------------|-----------------4h-6-------|--4------6----7----6----|--4-----------------------|
--4------6----7----------|--4------6----7-------------|------------------------|----------------------2s--|


  E   
---------------------------|--------------------------|---------4----4----4h--6--|---------4----4----4h--6--|
---------4----4-----4h--6--|--------4-----4----4h--6--|-----6--------------------|-----6--------------------|
-----6---------------------|-----6--------------------|--4-----------------------|--4-----------------------|
--4------------------------|--4-----------------------|--------------------------|--------------------------|



---------------------------|--------------------------|-----6--------------------|--------------------------|
---------4----4-----4h--6--|--------4----4-----4h--6--|--------------------------|--------------------------|
-----6---------------------|-----6--------------------|--4------2----------------|------4--2----------------|
--4------------------------|--4-----------------------|---------------4-----0----|--4------------4----2--4--|




Bridge 2:35

G|-----9------------------|-----8------------------|-----6------------------|---------------------|
D|------------------------|------------------------|------------------------|---------------------|
A|--7------7----7----7----|--6------6----6----6----|--4------6----7----6----|--4----2-------------|
E|------------------------|------------------------|------------------------|------------4----4---|


-----9------------------|-----8--------------------|-----6------------------|----------------------|
------------------------|--------------------------|------------------------|----------------------|
--7------7----7----7----|--6-----6-----4-----4-----|--4------6----7----4----|--6--6--6--6--6--6----|
------------------------|-----------------4-----4--|------------------------|----------------------|
    
    

0 Commentaires : réagissez !

1 2 3 4 5
1 note
Notes pour Miss You Basse Tab - (Leela James) | Slappyto : 5/5 sur 1 note
Aucun commentaire !

En Live

Wario a commenté le topic [videothèque des sons] de mr gone il y a 4 jours
Lebollos59 vient tout juste de rejoindre la communauté Slappyto. Bienvenue ! il y a 5 jours
GregRock vient tout juste de rejoindre la communauté Slappyto. Bienvenue ! il y a 6 jours
Chris927 vient tout juste de rejoindre la communauté Slappyto. Bienvenue ! il y a 1 semaine
Greeshma vient tout juste de rejoindre la communauté Slappyto. Bienvenue ! il y a 1 semaine
Ludo ZEFISH vient tout juste de rejoindre la communauté Slappyto. Bienvenue ! il y a 1 semaine
Nicobass1793 vient tout juste de rejoindre la communauté Slappyto. Bienvenue ! il y a 1 semaine
Indonesiae vient tout juste de rejoindre la communauté Slappyto. Bienvenue ! il y a 1 semaine
Grandbill a commenté la tablature de Coup_de_pelle il y a 1 semaine