ConnexionConnexionInscription
B E A D G
144 connectés Aller à Sweepyto Guitare

C2C - The Cell [ Artiste ]

Publié par le
03/03/2013
9592 vues
Avancé 1
http://www.deezer.com/fr/album/5302151
    
        

Intro: (0:24)

G:--------|--------|--------|--------|
D:--------|--------|--------|--------|
A:7-------|0-0-----|023-----|205-----|             x2
E:--------|-3------|--------|--------|

Riff: (0:49)

G:---9------------|----------------|---121412-141614--|-797-454-242----|
D:-79---797-------|-9-09-797-------|------------------|0---0---0-------|
A:7----7---7------|0-6--0----------|------------------|----------------|
E:----------------|----------------|678------8------75|----------------|

Riff jusqu'à la fin...
    
    

10 Commentaires

1 2 3 4 5
1 note
Notes pour The Cell Basse Tab - (C2C) | Slappyto : 4/5 sur 1 note
#10
21/03/2013 08:21:36
Ouais mais il faut la jouer très doucement au début puis tu augmentes 2 points par 2 points sur le métronome et après tu le joueras tellement Easy que la version normale te paraîtra lente! :D
0
0
#9
20/03/2013 19:12:46
elle est trop je trouve!!! mais dure à faire quand même.
0
0
#8
20/03/2013 19:12:42
elle est trop je trouve!!! mais dure à faire quand même.
0
0
#7
20/03/2013 19:12:39
elle est trop je trouve!!! mais dure à faire quand même.
0
0
#6
20/03/2013 14:25:58
Moi aussi je l'adore, c'est pour ça que je l'ai mise!  
0
0

En Live

Wario a commenté le topic [videothèque des sons] de mr gone il y a 5 jours
Lebollos59 vient tout juste de rejoindre la communauté Slappyto. Bienvenue ! il y a 5 jours
GregRock vient tout juste de rejoindre la communauté Slappyto. Bienvenue ! il y a 6 jours
Chris927 vient tout juste de rejoindre la communauté Slappyto. Bienvenue ! il y a 1 semaine
Greeshma vient tout juste de rejoindre la communauté Slappyto. Bienvenue ! il y a 1 semaine
Ludo ZEFISH vient tout juste de rejoindre la communauté Slappyto. Bienvenue ! il y a 1 semaine
Nicobass1793 vient tout juste de rejoindre la communauté Slappyto. Bienvenue ! il y a 1 semaine
Indonesiae vient tout juste de rejoindre la communauté Slappyto. Bienvenue ! il y a 1 semaine
Grandbill a commenté la tablature de Coup_de_pelle il y a 1 semaine