ConnexionConnexionInscription
B E A D G
130 connectés Aller à Sweepyto Guitare

Joe Dassin - Les Champs-Elysées [ Artiste ]

Publié par le
31/03/2013
15025 vues
Débutant 2
http://www.youtube.com/watch?v=d9V-zUlrhEE
    
        

************************************
* Joe Dassin : Les Champs-Elysées *
************************************

mesure = 12/8, tempo = 110, subdivision (-) = croche
suggestion de réglages :
    micro : 100% manche
    EQ = 100% bass / 50% mid / 50% treble

Intro
 |: 4x       :|
G|------------|
D|------------|
A|------------|
E|------------|

Couplet :
G|------------|------------|------------|------------|------------|------------|------------|------------|
D|------------|------------|------------|------------|------------|------------|------------|------------|
A|7--7--6--6--|4--4--------|------------|------2--2-6|7--7--6--6--|4--4--------|------------|------7--+--|
E|------------|------7--7--|5--5--4--4--|2--2--------|------------|------7--7--|5--5--4--4--|5--7--------|

Refrain :
G|------------|------------|------------|------------|------------|------------|------------|------------|
D|------------|------------|------------|------------|------------|------------|------------|------------|
A|7--7--6--6--|4--4--------|------------|------2--2--|7--7--6--6--|4--4--------|------------|------7--+--|
E|------------|------7--7--|5--5--4--4--|2--2--------|------------|------7--7--|5--5--4--4--|5--7--------|

Couplet

Refrain 2 :
G|------------|------------|------------|------------|------------|------------|------------|------------|
D|------------|------------|------------|------------|------------|------------|------------|------2--+--|
A|7--7--6--6--|4--4--------|------------|------2--2--|7--7--6--6--|4--4--------|------------|---2--------|
E|------------|------7--7--|5--5--4--4--|2--2--------|------------|------7--7--|5--5--4--4--|2-----------|

Pont :
G|------------|------------|------------|------------|------------|------------|------------|------------|
D|------------|------------|------------|2--+--------|------------|------------|------------|2-----------|
A|------2--+--|7--6--4--+--|------2--+--|------------|------2--+--|7--6--4--+--|------2--+--|---2--------|
E|2--+--------|------------|2--+--------|------------|2--+--------|------------|2--+--------|------0--+--|

Couplet

Refrain 3 :
G|------------|------------|------------|------------|------------|------------|------------|------------|
D|------------|------------|------------|------------|------------|------------|------------|------------|
A|7--7--6--6--|4--4--------|------------|------2--2-6|7--7--6--6--|4--4--------|------------|------7--+--|
E|------------|------7--7--|5--5--4--4--|2--2--------|------------|------7--7--|5--5--4--4--|5--7--------|

Refrain 4 :
G|------------|------------|------------|------------|------------|------------|------------|------------|
D|------------|------------|------------|------------|------------|------------|------------|------------|
A|7--7--6--6--|4--4--------|------------|------2--2--|7--7--6--6--|4--4--------|------------|------------|
E|------------|------7--7--|5--5--4--4--|2--2--------|------------|------7--7--|5--5--4--4--|5--7--0--+--|

Refrain >

=========================================================================================================================
Légende : + = étouffer la corde (stopper le son)
          |: Nx :| = répéter N fois le passage entre |: et :|
          > = en diminuant le volume
=========================================================================================================================

Visitez http://www.ilovetabs.com pour d'autres tablatures "+R" pour guitare basse.

    
    

1 Commentaire

1 2 3 4 5
1 note
Notes pour Les Champs-Elysées Basse Tab - (Joe Dassin) | Slappyto : 5/5 sur 1 note
#1
17/09/2013 13:00:54
merci beaucoup pour cet tab vraiment sympa a jouer  . super
0
0

En Live

Yvesson a commenté le topic [Amateurs de photographie, bon-jour/soir !] de cha0s-the0ry il y a 15 minutes
Yvesson a commenté le topic [Le Topic du Freepost 7] de Vikie il y a 23 minutes
Yvesson, sam et YannGGP ont commenté le topic [La mort de Slappyto?] de kurt il y a 24 minutes
Glimmerkajal vient tout juste de rejoindre la communauté Slappyto. Bienvenue ! il y a 2 jours
Wario a commenté le topic [videothèque des sons] de mr gone il y a 1 semaine
Lebollos59 vient tout juste de rejoindre la communauté Slappyto. Bienvenue ! il y a 1 semaine
GregRock vient tout juste de rejoindre la communauté Slappyto. Bienvenue ! il y a 1 semaine
Chris927 vient tout juste de rejoindre la communauté Slappyto. Bienvenue ! il y a 2 semaines
Greeshma vient tout juste de rejoindre la communauté Slappyto. Bienvenue ! il y a 2 semaines