ConnexionConnexionInscription
B E A D G
139 connectés Aller à Sweepyto Guitare

Pink - Try [ Artiste ]

Publié par le
29/05/2013
3566 vues
Débutant 2
http://www.youtube.com/watch?v=yTCDVfMz15M
    
        

                                      Try                                       


                                                                            P!nk
Piste 1



               E  E  E  E  E  E  E  E     E  E  E  E  E  E  E  E  10x
G||-------||---------------------------|---------------------------||
D||-------||*--------------------------|--------------------------*||
A||-------||*--------2--2--2--2--2--2--|--------5--5--5--5--5--5--*||
E||-------||---5--5--------------------|--3--3---------------------||


   W                   W                   W                 
--------------------|-------------------|-------------------|
*-------------------|-------------------|-------------------|
*-------------------|--5----------------|-------------------|
---3----------------|-------------------|--5----------------|


  W                     W                   W                 
--------------------||-------------------|-------------------|
-------------------*||-------------------|-------------------|
--2----------------*||-------------------|--5----------------|
--------------------||--3----------------|-------------------|


  W                     E  E  E  E  E  E  E  E     E  E  E  E  E  E  E  E   8x
-------------------||---------------------------|---------------------------||
-------------------||*--------------------------|--------------------------*||
-------------------||*--------2--2--2--2--2--2--|--------5--5--5--5--5--5--*||
--5----------------||---5--5--------------------|--3--3---------------------||


   W                   W                   W                 
--------------------|-------------------|-------------------|
*-------------------|-------------------|-------------------|
*-------------------|--5----------------|-------------------|
---3----------------|-------------------|--5----------------|


  W                     W                   W                 
--------------------||-------------------|-------------------|
-------------------*||-------------------|-------------------|
--2----------------*||-------------------|--5----------------|
--------------------||--3----------------|-------------------|


  W                     E  E  E  E  E  E  E  E     E  E  E  E  E  E  E  E   7x
-------------------||---------------------------|---------------------------||
-------------------||*--------------------------|--------------------------*||
-------------------||*--------2--2--2--2--2--2--|--------5--5--5--5--5--5--*||
--5----------------||---5--5--------------------|--3--3---------------------||


   W                   W                   W                 
--------------------|-------------------|-------------------|
*-------------------|-------------------|-------------------|
*-------------------|--5----------------|-------------------|
---3----------------|-------------------|--5----------------|


  W                 4x  W                   W                 
--------------------||-------------------|-------------------|
-------------------*||-------------------|-------------------|
--2----------------*||-------------------|--5----------------|
--------------------||--3----------------|-------------------|


  W                     E  E  E  E  E  E  E  E     E  E  E  E  E  E  E  E   6x
-------------------||---------------------------|---------------------------||
-------------------||*--------------------------|--------------------------*||
-------------------||*--------2--2--2--2--2--2--|--------5--5--5--5--5--5--*||
--5----------------||---5--5--------------------|--3--3---------------------||


  E  E  E  E  H          
-----------------------||
-----------------------||
--------2--------------||
--5--5-----------------||




Duration Legend
---------------
W - whole
H - half
Q - quarter
E - 8th
S - 16th
T - 32nd
X - 64th
. - note dotted
|-n-|  - n-tuplets


Tablature Legend
----------------
L - tied note
x - dead note
g - grace note
(n) - ghost note
> - accentuded note
NH - natural harmonic
AH - artificial harmonic
TH - tapped harmonic
SH - semi harmonic
PH - pitch harmonic
h - hammer on
p - pull off
b - bend
br - bendRelease
pb - preBend
pbr - preBendRelease
brb - bendReleaseBend
\n/ - tremolo bar dip
\n - tremolo bar dive
-/n - tremolo bar Release up
/n\ - tremolo bar inverted dip
/n - tremolo bar return
-\n - tremolo bar Release down
S - shift slide
s - legato slide
/ -  slide into from below or out of upwards
\ -  slide into from above or out of downwards
~ - vibrato
W - wide vibrato
tr - trill
TP - tremolo picking
T - tapping
S - slap
P - pop
< - fade in
^ - brush up
v - brush down

    
    

0 Commentaires : réagissez !

1 2 3 4 5
0 notes
Aucun commentaire !

En Live

Wario a commenté le topic [videothèque des sons] de mr gone il y a 4 jours
Lebollos59 vient tout juste de rejoindre la communauté Slappyto. Bienvenue ! il y a 5 jours
GregRock vient tout juste de rejoindre la communauté Slappyto. Bienvenue ! il y a 6 jours
Chris927 vient tout juste de rejoindre la communauté Slappyto. Bienvenue ! il y a 1 semaine
Greeshma vient tout juste de rejoindre la communauté Slappyto. Bienvenue ! il y a 1 semaine
Ludo ZEFISH vient tout juste de rejoindre la communauté Slappyto. Bienvenue ! il y a 1 semaine
Nicobass1793 vient tout juste de rejoindre la communauté Slappyto. Bienvenue ! il y a 1 semaine
Indonesiae vient tout juste de rejoindre la communauté Slappyto. Bienvenue ! il y a 1 semaine
Grandbill a commenté la tablature de Coup_de_pelle il y a 1 semaine