ConnexionConnexionInscription
B E A D G
143 connectés Aller à Sweepyto Guitare

Black keys - Next girl [ Artiste ]

Publié par le
11/09/2013
3132 vues
Débutant 2
http://www.youtube.com/watch?v=x_PrT25o8Vs
    
        

INTRO


  1  &  2  &  3  &  4  &
G|-----------------------------|
D|-----------------------------|
A|------------------7--9-------|
E|---------------9-------------|

  1  &  2  &  3  &  4  &       1  &  2  &  3  &  4  &
----------------------------|----------------------------|
----------------------------|----------------------------|
--11-11-11-11-11-11-11-11---|--9--9--9--9--7~~~~~~~~~----|
----------------------------|----------------------------|

Verse 1

  1  &  2  &  3  &  4  &       1  &  2  &  3  &  4  &
----------------------------|----------------------------|
----------------------------|----------------------------|
----------------------------|----------------------------|
--7--9--9~~~~~~~~~~~~~------|--7--0--0~~~~~~~~~~~~~------|[x8]

Chorus

  1  &  2  &  3  &  4  &       1  &  2  &  3  &  4  &
----------------------------|----------------------------|
----------------------------|----------------------------|
--------7-------------------|--------7-------------------|
--7--9-----9~~~~~---9-------|--7--9-----9~~~~~---9-------|

  1  &  2  &  3  &  4  &       1  &  2  &  3  &  4  &
----------------------------|----------------------------|
----------------------------|----------------------------|
--------7h9-7~~~~~--7-------|--------7-------------------|
--7--9----------------------|--0-7-9----9~~~~~---9-------|

  1  &  2  &  3  &  4  &       1  &  2  &  3  &  4  &
----------------------------|----------------------------|
----------------------------|----------------------------|
---------7------------------|--------7-------------------|
-0-0-7-9----9~~~~~---9------|--7--9-----9~~~~~---9-------|

  1  &  2  &  3  &  4  &       1  &  2  &  3  &  4  &
----------------------------|----------------------------|
----------------------------|----------------------------|
--------7h9-7~~~~~--7-------|--------7-------------------|
-0-7-9----------------------|--0-7-9----9~~~~~---9-------|

Verse 2

  1  &  2  &  3  &  4  &       1  &  2  &  3  &  4  &
----------------------------|----------------------------|
----------------------------|----------------------------|
----------------------------|----------------------------|
--7--9--9~~~~~~~~~~~~~------|--7--0--0~~~~~~~~~~~~~------|[x6]

Chorus

  1  &  2  &  3  &  4  &       1  &  2  &  3  &  4  &
----------------------------|----------------------------|
----------------------------|----------------------------|
--------7-------------------|--------7-------------------|
--7--9-----9~~~~~---9-------|--7--9-----9~~~~~---9-------|
 
  1  &  2  &  3  &  4  &       1  &  2  &  3  &  4  &
----------------------------|----------------------------|
----------------------------|----------------------------|
--------7h9-7~~~~~--7-------|--------7-------------------|
--7--9----------------------|--0-7-9----9~~~~~---9-------|

  1  &  2  &  3  &  4  &      1  &  2  &  3  &  4  &
---------------------------|----------------------------|
---------------------------|----------------------------|
--------7------------------|--------7-------------------|
--0-7-9----9~~~~~---9------|--0-7-9----9~~~~~---9-------|

  1  &  2  &  3  &  4  &       S S  E  E  Q    E  S S E  
----------------------------|----------------------------|
----------------------------|----------------------------|
--------7h9-7~~~~~----------|----------7------------7-9--|
--0-7-9-------------9-------|--0-7--9-----9----9--9------|

 Bridge

  1  &  2  &  3  &  4  &       1  &  2  &  3  &  4  &
----------------------------|----------------------------|
----------------------------|----------------------------|
--11-11-11-11-11-11-11-11---|--9--9--9--9--9--9--7~~-----|
----------------------------|----------------------------|

  1  &  2  &  3  &  4  &       S S  E  E  Q    E  S S E 
----------------------------|----------------------------|
----------------------------|----------------------------|
--------7-------------------|----------7------------7-9--|
--7--9-----9~~~~~---9-------|--0-7--9-----9----9--9------|

  1  &  2  &  3  &  4  &       1  &  2  &  3  &  4  &
----------------------------|----------------------------|
----------------------------|----------------------------|
--11-11-11-11-11-11-11-11---|--9--9--9--9--7~~~~~~-------|
----------------------------|----------------------------|

Outro

  1  &  2  &  3  &  4  &       1  &  2  &  3  &  4  &
----------------------------|----------------------------|
----------------------------|----------------------------|
----------------------------|----------------------------|
--7--9--9~~~~~~~~~~~~~------|--7--0--0~~~~~~~~~~~~~------|[x6]

  1  &  2  &  3  &  4  &
----------------------------||
----------------------------||
----------------------------||
--7--9--9~~~~~~~~~~~~~~~~~--||


Merci Rocksmith.
    
    

0 Commentaires : réagissez !

1 2 3 4 5
0 notes
Aucun commentaire !

En Live

Wario a commenté le topic [videothèque des sons] de mr gone il y a 5 jours
Lebollos59 vient tout juste de rejoindre la communauté Slappyto. Bienvenue ! il y a 5 jours
GregRock vient tout juste de rejoindre la communauté Slappyto. Bienvenue ! il y a 6 jours
Chris927 vient tout juste de rejoindre la communauté Slappyto. Bienvenue ! il y a 1 semaine
Greeshma vient tout juste de rejoindre la communauté Slappyto. Bienvenue ! il y a 1 semaine
Ludo ZEFISH vient tout juste de rejoindre la communauté Slappyto. Bienvenue ! il y a 1 semaine
Nicobass1793 vient tout juste de rejoindre la communauté Slappyto. Bienvenue ! il y a 1 semaine
Indonesiae vient tout juste de rejoindre la communauté Slappyto. Bienvenue ! il y a 1 semaine
Grandbill a commenté la tablature de Coup_de_pelle il y a 1 semaine