ConnexionConnexionInscription
B E A D G
156 connectés Aller à Sweepyto Guitare

Lumidee - Dance [ Artiste ]

Publié par le
31/08/2013
2324 vues
Débutant 1
http://www.youtube.com/watch?v=cCKYPlDu1a4
    
        

Riff
T=128

                                   Dance                                       


                                                                         Lumidee
Basse



      E  E  E  S S E  E  E  E     E  E  E  S S E  E  E  E   
G||----------------------------|---------------------------|
D||*---------------------------|---------------------------|
A||----------------------------|------------------4--2--0--|
E||*--2--2--2--2-2-2--2--2--2--|--2--2--2--2-2-2-----------|
B||----------------------------|---------------------------|


  E  E  E  S S E  E  E  E     E  E  E  S S E  E  E  E     
---------------------------|----------------------------||
---------------------------|---------------------------*||
---------------------------|----------------------------||
--2--2--2--2-2-2--2--2--2--|--2--2--2--2-2-2-----0--1--*||
---------------------------|------------------4---------||




Duration Legend
---------------
W - whole
H - half
Q - quarter
E - 8th
S - 16th
T - 32nd
X - 64th
. - note dotted
|-n-|  - n-tuplets


Tablature Legend
----------------
L - tied note
x - dead note
g - grace note
(n) - ghost note
> - accentuded note
NH - natural harmonic
AH - artificial harmonic
TH - tapped harmonic
SH - semi harmonic
PH - pitch harmonic
h - hammer on
p - pull off
b - bend
br - bendRelease
pb - preBend
pbr - preBendRelease
brb - bendReleaseBend
\n/ - tremolo bar dip
\n - tremolo bar dive
-/n - tremolo bar Release up
/n\ - tremolo bar inverted dip
/n - tremolo bar return
-\n - tremolo bar Release down
S - shift slide
s - legato slide
/ -  slide into from below or out of upwards
\ -  slide into from above or out of downwards
~ - vibrato
W - wide vibrato
tr - trill
TP - tremolo picking
T - tapping
S - slap
P - pop
< - fade in
^ - brush up
v - brush down

    
    

0 Commentaires : réagissez !

1 2 3 4 5
0 notes
Aucun commentaire !

En Live

Cell a commenté le topic ["recherche" Digitech bass synth wah] de Cell il y a 3 heures
Cell et yvesson ont commenté le topic [Le Topic du Freepost 7] de Vikie il y a 4 heures
Cell a commenté le topic ["recherche" Digitech bass synth wah] de Cell il y a 4 heures
Yvesson a commenté le topic [Amateurs de photographie, bon-jour/soir !] de cha0s-the0ry il y a 17 heures
Yvesson, sam et YannGGP ont commenté le topic [La mort de Slappyto?] de kurt il y a 17 heures
Glimmerkajal vient tout juste de rejoindre la communauté Slappyto. Bienvenue ! il y a 3 jours
Wario a commenté le topic [videothèque des sons] de mr gone il y a 1 semaine
Lebollos59 vient tout juste de rejoindre la communauté Slappyto. Bienvenue ! il y a 1 semaine
GregRock vient tout juste de rejoindre la communauté Slappyto. Bienvenue ! il y a 1 semaine
Chris927 vient tout juste de rejoindre la communauté Slappyto. Bienvenue ! il y a 2 semaines