ConnexionConnexionInscription
B E A D G
154 connectés Aller à Sweepyto Guitare

The Cure - Killing an Arab [ Artiste ]

Publié par le
13/09/2013
2610 vues
Débutant 3
http://www.youtube.com/watch?v=SdbLqOXmJ04
    
        



Standard Tuning EADG


Intro

|----7-----6-----5-----4-----3-----2-----1-----|
|-9-9-9-8-8-8-7-7-7-6-6-6-5-5-5-4-4-4-3-3-3----|
|----------------------------------------------|
|----------------------------------------------|

|-----------------------------------------------------------------|
|-2-2---2-2-2---2-2-2---2-3-5-----2-2---2-2-2---2-2-2---2-3-5-----|
|-----------------------------------------------------------------|
|-----------------------------------------------------------------|x2


Verse
|-----------------------------------------------------------------|
|-2-2---2-2-2---2-2-2---2-3-5-----2-2---2-2-2---2-2-2---2-3-5-----|
|-----------------------------------------------------------------|
|-----------------------------------------------------------------|x2


Chorus
|--------------------------------------------------------------------|
|-9-9---9-9-9---9-9-9---9-10-11---9-9---9-9-9---9-9-9---9-10-11-10-0-|
|--------------------------------------------------------------------|
|--------------------------------------------------------------------|

|-----------------------------------------------------------------|
|-2-2---2-2-2---2-2-2---2-3-5-----2-2---2-2-2---2-2-2---2-3-5-----|
|-----------------------------------------------------------------|
|-----------------------------------------------------------------|


Verse

Chorus

Interlude
|-----------------------------------------------------------------|
|-2-2---2-2-2---2-2-2---2-3-5-----2-2---2-2-2---2-2-2---2-3-5-----|
|-----------------------------------------------------------------|
|-----------------------------------------------------------------|x2

|--------------------------------------------------------------------|
|-9-9---9-9-9---9-9-9---9-10-11---9-9---9-9-9---9-9-9---9-10-11-10-0-|
|--------------------------------------------------------------------|
|--------------------------------------------------------------------|

|-----------------------------------------------------------------|
|-2-2---2-2-2---2-2-2---2-3-5-----2-2---2-2-2---2-2-2---2-3-5-----|
|-----------------------------------------------------------------|
|-----------------------------------------------------------------|


Verse

Chorus


Outro
|-----------------------------------------------------------------|
|-2-2---2-2-2---2-2-2---2-3-5-----2-2---2-2-2---2-2-2---2-3-5-----|
|-----------------------------------------------------------------|
|-----------------------------------------------------------------|x2

|----7-----6-----5-----4-----3-----2-----1------|
|-9-9-9-8-8-8-7-7-7-6-6-6-5-5-5-4-4-4-3-3-3-2---|
|-----------------------------------------------|
|-----------------------------------------------|
    
    

1 Commentaire

1 2 3 4 5
0 notes
#1
13/09/2013 17:11:04

esstra !!

0
+1

En Live

Yvesson a commenté le topic [Amateurs de photographie, bon-jour/soir !] de cha0s-the0ry il y a 57 minutes
Yvesson a commenté le topic [Le Topic du Freepost 7] de Vikie il y a 1 heure
Yvesson, sam et YannGGP ont commenté le topic [La mort de Slappyto?] de kurt il y a 1 heure
Glimmerkajal vient tout juste de rejoindre la communauté Slappyto. Bienvenue ! il y a 2 jours
Wario a commenté le topic [videothèque des sons] de mr gone il y a 1 semaine
Lebollos59 vient tout juste de rejoindre la communauté Slappyto. Bienvenue ! il y a 1 semaine
GregRock vient tout juste de rejoindre la communauté Slappyto. Bienvenue ! il y a 1 semaine
Chris927 vient tout juste de rejoindre la communauté Slappyto. Bienvenue ! il y a 2 semaines
Greeshma vient tout juste de rejoindre la communauté Slappyto. Bienvenue ! il y a 2 semaines