ConnexionConnexionInscription
B E A D G
163 connectés Aller à Sweepyto Guitare

The Smiths - Meat is Murder [ Artiste ]

Publié par le
16/11/2013
1590 vues
Débutant 1
http://youtu.be/TmjApC_wxR4
    
        

Title: Meat is Murder
Artist: The Smiths 
Album: Meat is Murder
Author : Morrissey and Marr

Mesure : 6/4

(version remasterisée 2011 - 5 tons au dessus de l'originale)

Couplet

Basse 		F#|-------------------------|-------------------------|
		C#|-----3-4-_-3-1_-_--------|-------4_-_--------4_-_--|
		G#|-1_----------------4_-_--|-1-3-4-------1-3-4-------|
		D#|-------------------------|-------------------------|

Percussion	  |-h-h-h-h-h-h-h-h-h-h-h-h-|-h-h-h-h-h-h-h-h-h-h-h-h-|
		  |-b-----s-----b-----s-----|-b-----s-----b-----s-----|

( b = bass pedal; h = hi hat closed; s = snare) 

Refrain (Why these beautiful creatures must die ?…)

 		F#|------------------------|--------------------------|
		C#|-4_-__-------4_-__------|--------------------------|
		G#|-------4_-__-------4_-__|-6_-__--------6_-__-------|
		D#|------------------------|-------6_-__--------6_-__-|

		F#|------------------------|------(3)----------(3)----|
		C#|-4_-__-------6_-__-4_-__|--------------------------|
		G#|-------4_-__------------|-1_-__--------1_-__-------|
		D#|------------------------|-------1_-__--------1_-__-|



 		F#|------------------------|--------------------------|
		C#|-4_-__-------4_-__------|--------------------------|
		G#|-------4_-__-------4_-__|-6_-__--------6_-__-------|
		D#|------------------------|-------6_-__--------6_-__-|


		F#|------------------------|------(3)----------(3)----|
		C#|-4_-__-3_-__-1_-__-4_-__|--------------------------|
		G#|------------------------|-1_-__--------1_-__-------|
		D#|------------------------|-------1_-__--------1_-__-|


		F#|------------------------|------(3)----------(3)----|
		C#|-4_-__-3_-__-1_-__-4_-__|--------------------------|
		G#|------------------------|-1_-__--------1_-__-------|
		D#|------------------------|-------1_-__--------1_-__-|

		F#|------------------------|------(3)-----------------|--------------|
		C#|-4_-__-3_-__-1_-__-4_-__|--------------------------|--------------|
		G#|------------------------|-1_-__-------1-3-4_-___---|-3_-_--2-_-__-|
		D#|------------------------|-------1_-__--------------|--------------|

(Couplet x 1)

(Refrain)

(Couplet jusqu'à la fin)


    
    

1 Commentaire

1 2 3 4 5
0 notes
#1
18/11/2013 17:21:57

Quelle excellente idée de poster une chanson des Smiths

0
0

En Live

Manyak et Wario ont commenté le topic [Photos de vos basses] de lucas il y a 2 heures