ConnexionConnexionInscription
B E A D G
113 connectés Aller à Sweepyto Guitare

THE JAM - START! [ Artiste ]

Publié par le
19/10/2013
2105 vues
Débutant 1
http://www.youtube.com/watch?v=fdSqpT6gfDU
    
        

PART 1
   + +   +   +   + +   +   +   + +   +   +   + +   +   +
G|-------------|-------------|---7-----5-7-|---7-----5-7-|
D|---5-----3-5-|---5-----3-5-|-----5h7-----|-----5h7-----|
A|-----3h5-----|-----3h5-----|-5-----------|-5-----------|
E|-3-----------|-3-----------|-------------|-------------|


PART 2
   + +   +  +    +  +    +  +     + +   +  +    + +   +  +
G|-------------|----------------|-------------|---7-----5-7-|
D|---9-----7-9-|---10------8-10-|---9-----7-9-|-----5h7-----|
A|-----7h9-----|------8h10------|-----7h9-----|-5-----------|
E|-7-----------|-8--------------|-7-----------|-------------|

Répéter 3 fois partie 2  Puis jouer celle-ci  
   + +   +   +     + +   +    
G|---9-----7-7h9-|---9-----7-9-|
D|-----7h9-------|-----7h9-----|
A|-7-------------|-7-----------| 
E|---------------|-------------| 

BRIDGE
     +   +   +   +     +   +   +   +     +   +   +   +
G|-----------------|-----------------|-----------------|
D|-----------------|-------------5-7-|-----------------|
A|-------------4-4-|-5-5-7-7-8-8-----|-------------4-4-|
E|-5-5-7-7-8-8-----|-----------------|-5-5-7-7-8-8-----|

     +   +   +   +
G|-----------------|
D|-----------------|
A|-5-5-3-3-2-2-0-0-|
E|-----------------|

 Maintenant, répétez l'ensemble du lot (par exemple, Parts 1 & 2 et pont)

                              + +   +   +
 Remplacer maintenant      G|-----------5---|
 La 1er partie de PART1     D|---5-----3---3-|
 Par celle-ci              A|-----3h5-------|
                           E|-3-------------|

MIDDLE 8
   + + +  +    + + +  +             + + + +   + + + +
G|-----------|-----------|        |---------|---------|
D|---7-----7-|---8-----8-|        |---------|---------|
A|-----7-7---|-----8-8---|        |-5-5-5-5-|-5-5-5\--|
E|-5---------|-6---------|        |---------|---------|

GUITAR SOLO:- jouer PART 1
TIMES

MIDDLE 8 (AGAIN)

OUTRO
    
    

1 Commentaire

1 2 3 4 5
0 notes
#1
05/10/2013 15:53:28

modifié !

0
0

En Live

Saikodoll vient tout juste de rejoindre la communauté Slappyto. Bienvenue ! il y a 2 jours
Bertrand44 vient tout juste de rejoindre la communauté Slappyto. Bienvenue ! il y a 3 jours
OLIVIER59500 vient tout juste de rejoindre la communauté Slappyto. Bienvenue ! il y a 3 jours
Jazzbassfoufou vient tout juste de rejoindre la communauté Slappyto. Bienvenue ! il y a 4 jours
MrSpit a commenté le topic [Sandberg Fretless] de MrSpit il y a 4 jours