ConnexionConnexionInscription
B E A D G
127 connectés Aller à Sweepyto Guitare

Sting - Shadows in the Rain (live) [ Artiste ]

Publié par le
16/11/2013
2064 vues
Moyen 1
http://www.youtube.com/watch?v=H2h8ZqMe0TY
    
        

G------------------------------------------------
D------------------------------------------------
A------------------------------------------------
E---5--3--0--3--5--3-0-3---5--3--0--3--5--3-0-3--


G------------------------------------------------
D------------------------------------------------
A---5--3--0--3--5--3-0-3---5--3--0--3--5--3-0-3--
E------------------------------------------------


G------------------------------------------------
D------------------------------------------------
A---8--7--5--7--8--7-5----8--7--5--7--8--7-5-----
E----------------------8---------------------8---


G------------------------7-8-9-------------------
D-------7-8-9----------9--------4-5-6------------
A-----9-------4-5-6-7----------------------------
E---7--------------------------------------------

    
    

0 Commentaires : réagissez !

1 2 3 4 5
0 notes
Aucun commentaire !

En Live

Manyak et Wario ont commenté le topic [Photos de vos basses] de lucas il y a 19 heures