ConnexionConnexionInscription
B E A D G
78 connectés Aller à Sweepyto Guitare

Red Hot Chili Peppers - Pea [ Artiste ]

Publié par le
11/02/2020
68 vues
Débutant 1
    
        

G|----------|----------|----------|----------|
D|-3--33--3-|----------|----------|----------|
A|----------|-4--44--4-|-3--33--3-|-1--11--1-|
E|----------|----------|----------|----------|     x4


G|----------|----------|----------|----------|
D|3h5-55--5-|-8--88--8-|-3-33-333-33-33---023|
A|----------|----------|----------|----------|
E|----------|----------|----------|----------|


G|----------|----------|----------|----------|
D|-5--55--5-|-8--88--8-|-3--33--333--3--3--3-|
A|----------|----------|----------|----------|
E|----------|----------|----------|----------|


G|----------|----------|----------|----------|
D|-2--22--2-|-----0--3-|-2--22--2-|-----0--5-|
A|----------|-3--3-----|----------|-3--3-----|
E|----------|----------|----------|----------|


G|----------|----------|----------|----------|
D|-2--22--2-|-----0--3-|-2--22--2-|-0-0-33--2|
A|----------|-3--3-----|----------|----------|
E|----------|----------|----------|----------|


G|----------|----------|----------|----------|
D|-2-2--22-2|-0--333-2-|-2-2--22-2|-00003332-|
A|----------|----------|----------|----------|
E|----------|----------|----------|----------|


G|----------|----------|----------|----------|
D|-2-2--22-2|-00003332-|-2-2--22-2|----------|
A|----------|----------|----------|-----000--|
E|----------|----------|----------|----------|


N'hésitez pas à dire ce que vous en pensez et si l'on peut revoir certaines choses !!!
    
    

0 Commentaires : réagissez !

1 2 3 4 5
0 notes
Aucun commentaire !

En Live

Maax a commenté la tablature de papiendrix il y a 5 heures
Maax vient tout juste de rejoindre la communauté Slappyto. Bienvenue ! il y a 5 heures
Rose vient tout juste de rejoindre la communauté Slappyto. Bienvenue ! il y a 6 heures
Tofe et alyson hell ont commenté le topic [Chainage d’effets] de alain8225 il y a 11 heures
Bruno5520 vient tout juste de rejoindre la communauté Slappyto. Bienvenue ! il y a 4 jours
Pagechr a commenté le topic [boite à rythme] de w79 il y a 5 jours
Gilles6 vient tout juste de rejoindre la communauté Slappyto. Bienvenue ! il y a 5 jours
Pagechr, escaliyo, kata oner et grobass ont commenté le topic [Achat d'un ampli débutant] de Freinet il y a 5 jours