ConnexionConnexionInscription
B E A D G
135 connectés Aller à Sweepyto Guitare

Avenged Sevenfold - Sheperd of Fire [ Artiste ]

Publié par le
03/01/2016
7879 vues
Moyen 3
http://www.youtube.com/watch?v=bT8FEOJEFcI
    
        

Sheperd of Fire - Avenged Sevenfold - Hail to the King (2013)

Mesure = 4/4, Tempo = 128, Subdivision(-) = double-croche

Légende :
X (grand x): silence (croche)
x (petit x): silence (double-croche)

Commence après 16 mesures

 DEBUT DE LA BATTERIE (de 0:35 à 1:06)
 |:      14x     :|
G|----------------|----------------|----------------|
D|----------------|----------------|----------------|
A|----------------|----------------|----------------|
E|0-0-0-0-0-0-0-0-|0-0-0-0-0-0-0-8-|8-8-X-5-5-5-X-0-|


 RIFF PRINCIPALE (de 1:06 à 1:21)
G|----------------|----------------|----------------|----------------|----------------|
D|----------------|----------------|----------------|----------------|----------------|
A|----------------|----------------|----------------|----------------|----------------|
E|0-0-0-0-0-0-0-0-|0-0-0-0-0-0-0-0-|0-0-0-0-0-0-0-8-|8-8-X-5-5-5-X-0-|0-0-0-0-0-0-0-0-|

G|----------------|----------------|----------------|
D|----------------|----------------|----------------|
A|----------------|----------------|----------------|
E|0-0-0-0-0-0-0-0-|0-0-0-0-0-0-0-8-|8-8-X-5-5-5-X-0-|


 COUPLET 1 (de 1:21 à 1:37)
G|----------------|----------------|----------------|----------------|----------------|
D|----------------|----------------|----------------|----------------|----------------|
A|----------------|----------------|----------------|----------------|----------------|
E|0---0000000xX-0-|0---0000000xx-0-|0---0000000xX-8-|8-8-X-5-5-5-X-0-|0---0000000xX-0-|

G|----------------|----------------|----------------|
D|----------------|----------------|----------------|
A|----------------|----------------|----------------|
E|0---0000000xX-0-|0---0000000xX-8-|8-8-X-5-5-5-X-7-|


 PRE-REFRAIN (de 1:37 à 1:43)
G|----------------|----------------|----------------|----------------|
D|----------------|----------------|----------------|----------------|
A|----------------|----------------|----------------|------3-3-3-X-1-|
E|7---7777777xX-8-|8-8-X-5-5-5-X-7-|7---7777777xX-0-|0-0-X-----------|


 REFRAIN (de 1:43 à 2:04)
 |:                               2x                                :|
G|----------------|----------------|----------------|----------------|----------------|
D|----------------|----------------|----------------|----------------|----------------|
A|1-1-1---1-1-1-3-|3-3-3---3-3-3---|----------------|--------------1-|1-1-1---1-1-1---|
E|----------------|--------------0-|0-0-0-0-0-0-0-0-|0-0-0-0-0-0-0---|--------------5-|

G|----------------|----------------|
D|----------------|----------------|
A|----------------|----------------|
E|5---------------|5-------------0-|

 COUPLET 2 (de 2:04 à 2:19)
 Identique au COUPLET 1

 PRE-REFRAIN (de 2:19 à 2:27)

 REFRAIN  (de 2:27 à 2:47)

 SOLO (de 2:47 à 3:11)
 |:              3x               :|
G|----------------|----------------|----------------|----------------|----------------|
D|----------------|----------------|----------------|----------------|----------------|
A|----------------|----------------|----------------|----------------|----------------|
E|0---00000000008-|8-8-X-5-5-5-X-0-|0---00000000008-|8-8-X-5-5-5-X-7-|7---77777777778-|

G|----------------|----------------|----------------|
D|----------------|----------------|----------------| 
A|----------------|----------------|----X-3-3-3-X-1-|
E|8-8-X-5-5-5-X-7-|7---77777777770-|0-0-------------|

 DUEL (de 3:11 à 4:07)
 |:                               2x                                :|
G|----------------|----------------|----------------|----------------|----------------|
D|----------------|----------------|----------------|----------------|----------------|
A|1-1-1---1-1-1-3-|3-3-3---3-3-3---|----------------|--------------1-|1-1-1---1-1-1---|
E|----------------|--------------0-|0---000000000000|00000000000000--|--------------5-|

                                                                                                        
G|----------------|----------------|----------------|----------------|----------------|
D|----------------|----------------|----------------|----------------|----------------|
A|----------------|----------------|----------------|----------------|----------------|
E|5-----5-5-5-5-5-|5-5-5-5-5-5-5---|0---------------|0---------------|0---------------|
                                                    
                  |:      8x      :|                                 |:      5x      :|  |                                                
G|----------------|----------------|----------------|----------------|----------------|
D|----------------|----------------|----------------|----------------|----------------|
A|----------------|----------------|----------------|----------------|----------------|
E|0---------------|0-0-0-0-0-0-0-0-|7-7-7-7-7-7-7-7-|8-8-8-8-5-5-5-5-|7-7-7-7-7-7-7-7-|

G|----------------|
D|----------------|
A|----------------|
E|7-----------7-1-|


 REFRAIN (de 4:07 à 4:48)


 OUTRO              FADE OUT  (de 4:48 à la fin)
 |:      4x      :|:      14x     :|     
G|----------------|----------------|----------------|----------------|----------------|
D|----------------|----------------|----------------|----------------|----------------|
A|----------------|----------------|----------------|----------------|----------------|
E|0-0-0-0-0-0-0-0-|0-0-0-0-0-0-0-0-|0-------0-------|0---------------|0---------------|
    
    

0 Commentaires : réagissez !

1 2 3 4 5
0 notes
Aucun commentaire !

En Live

Bilbaroud, Mat 31 et shalbala ont commenté le topic [Association de Mots] de Claypool-Fish! il y a 31 minutes
Grattos95 a voté pour le message de Manyak il y a 4 heures
Radikal Audio a voté pour le message de katell29 il y a 9 heures
Radikal Audio a voté pour le message de ZumZum il y a 9 heures
Bilbaroud a voté pour le message de grobass il y a 18 heures
Plpr a voté pour le message de Wario il y a 18 heures
Plpr a voté pour le message de PatG il y a 18 heures
Ray a commenté le topic [Dégasage (basses+ampli)] de robin_doh il y a 20 heures
Pat et kurt ont commenté le topic [La mort de Slappyto?] de kurt il y a 20 heures