ConnexionConnexionInscription
B E A D G
134 connectés Aller à Sweepyto Guitare

Oxmo Puccino & the Jazzbastards - Au Lipopette Bar [ Artiste ]

Publié par le
12/01/2011
4519 vues
Débutant 1
http://www.youtube.com/watch?v=TVMTFav_3nA
    
        

Oxmo Puccino & the jazzbastards                                                                
2-Au Lipopette Bar  
Lipopette bar

                                                                    
Theme A:intro & couplet                                      
                                    
 
G||----------14------14--------------14----------|
D||--12----------12--------------12--------------|
A||-----------------------------------------0----|
E||----------------------------------------------|


                Theme B:Refrain                                          
 
G||------------||-------------------------|---------------------|
D||------------||-------------------------|---------------------|
A||--------0---||---5-----------------0---|--5----------------0-|
E||------------||-------------------------|---------------------|

    
    

0 Commentaires : réagissez !

1 2 3 4 5
0 notes
Aucun commentaire !

En Live

Cell a commenté le topic ["recherche" Digitech bass synth wah] de Cell il y a 3 heures
Cell et yvesson ont commenté le topic [Le Topic du Freepost 7] de Vikie il y a 3 heures
Cell a commenté le topic ["recherche" Digitech bass synth wah] de Cell il y a 3 heures
Yvesson a commenté le topic [Amateurs de photographie, bon-jour/soir !] de cha0s-the0ry il y a 16 heures
Yvesson, sam et YannGGP ont commenté le topic [La mort de Slappyto?] de kurt il y a 16 heures
Glimmerkajal vient tout juste de rejoindre la communauté Slappyto. Bienvenue ! il y a 3 jours
Wario a commenté le topic [videothèque des sons] de mr gone il y a 1 semaine
Lebollos59 vient tout juste de rejoindre la communauté Slappyto. Bienvenue ! il y a 1 semaine
GregRock vient tout juste de rejoindre la communauté Slappyto. Bienvenue ! il y a 1 semaine
Chris927 vient tout juste de rejoindre la communauté Slappyto. Bienvenue ! il y a 2 semaines