ConnexionConnexionInscription
B E A D G
155 connectés Aller à Sweepyto Guitare

Red Hot Chili Peppers - Dosed

Publié par le
02/12/2007
28317 vues
Débutant 3
Vitesse NormaleNormal speed Vitesse RalentieSlow down speed
G-----------------|------------------|
D-----4-5-----4-5-|-----4-5----5H7-5-|
A-3-3-----3-3-----|-5-5-----7-7------|
E-----------------|------------------|

G-----------------|-----------------|
D-----4-5-----4-5-|-----4-5---------|
A-3-3-----3-3-----|-5-5-----7-7-5---|
E-----------------|---------------7-|
Ce plan va permettre d'améliorer les sauts de cordes au niveau de la main droite. Sinon,il n'y a pas de trop de difficultés :o)

0 Commentaires : réagissez !

1 2 3 4 5
0 notes
Aucun commentaire !

En Live

Yashodhakrshn vient tout juste de rejoindre la communauté Slappyto. Bienvenue ! il y a 3 heures
Deved vient tout juste de rejoindre la communauté Slappyto. Bienvenue ! il y a 1 jour
Quelqu'un vient tout juste de rejoindre la communauté Slappyto. Bienvenue ! il y a 5 jours
Riep vient tout juste de rejoindre la communauté Slappyto. Bienvenue ! il y a 1 semaine
Ichmul vient tout juste de rejoindre la communauté Slappyto. Bienvenue ! il y a 1 semaine
Gwenbasse vient tout juste de rejoindre la communauté Slappyto. Bienvenue ! il y a 1 semaine
Goldergol vient tout juste de rejoindre la communauté Slappyto. Bienvenue ! il y a 1 semaine
Omywish1 vient tout juste de rejoindre la communauté Slappyto. Bienvenue ! il y a 2 semaines