ConnexionConnexionInscription
B E A D G
118 connectés Aller à Sweepyto Guitare

Red Hot Chili Peppers - By the way - Intro

Publié par le
02/12/2007
119745 vues
Débutant 1
Vitesse NormaleNormal speed Vitesse RalentieSlow down speed
G-10-10-10-10-10-10-10-10-|-9-9-9-9-9-9-9-9-|
D-------------------------|-----------------|
A-------------------------|-----------------|
E-------------------------|-----------------|

G-----------------|-----------------|
D-7-7-7-7-7-7-7-7-|-7-7-7-7-7-7-7-7-|
A-----------------|-----------------|
E-----------------|-----------------|

G-10-10-10-10-10-10-10-10-|-------------------------|
D-------------------------|-10-10-10-10-10-10-10-10-|
A-------------------------|-------------------------|
E-------------------------|-------------------------|

G-----------------|-----------------|
D-7-7-7-7-7-7-7-7-|-7-7-7-7-7-7-7-7-|
A-----------------|-----------------|
E-----------------|-----------------|
Cette fois-ci on accélère un petit peu le tempo et on n'oublie pas l'alternance index/majeur des doigts de la main droite. Ce plan est vraiment un très bon exercice du genre : Entraînez-vous bien !!! :o)

2 Commentaires

1 2 3 4 5
10 notes
Notes pour By the way - Intro - Red Hot Chili Peppers - Cours de basse vidéo | Slappyto : 4/5 sur 10 notes
#2
30/01/2015 15:01:26

Cool, simple, merci vieux  

0
+1
#1
08/06/2012 21:13:30
Sympa pour s'échauffer, merci pour tous tes cours Poppyto ! :p
0
+1

En Live

Ray et bb20 ont commenté le topic [Vds basse Patrice Blanc SB52] de fractal il y a 1 jour
Rene67 a voté pour le message de yohann il y a 1 jour
Gfrancony a commenté le dossier de MTLK il y a 3 jours
Bilbaroud, yohann, Ours02 et dubwise ont commenté le topic [vent ou echange squier vm pj 200e] de dubwise il y a 3 jours
Ours02 a voté pour le message de yohann il y a 4 jours