ConnexionConnexionInscription
B E A D G
80 connectés Aller à Sweepyto Guitare

Red Hot Chili Peppers - Sir Psycho Sexy

Publié par le
02/12/2007
54494 vues
Débutant 1
Vitesse NormaleNormal speed Vitesse RalentieSlow down speed
G-------------------------|-------------------------|
D-------------------------|-------------------------|
A-7---------4---5-----5---|-7---------4--5-4--------|
E---0---6-7---------0---0-|---0---6-7---------------|

G-------------------------|-------------------------|
D-------------------------|-------------------------|
A-7---------4---5-----5---|-7------5--7-5-----------|
E---0---6-7---------0---0-|---0---------------------|
Un plan pas très difficile pour un morceau d'anthologie des Red Hot. Néanmoins, commencez doucement afin d'avoir le plan en mémoire. Pour l'instant jouez-y soft...nous verrons un peu plus loin qu'il faut savoir mettre "la patate" sur ce genre de chanson :o). Si vous possédez une pédale d'effet type phaser, ça rendra encore mieux :o)

4 Commentaires

1 2 3 4 5
5 notes
Notes pour Sir Psycho Sexy - Red Hot Chili Peppers - Cours de basse vidéo | Slappyto : 5/5 sur 5 notes
#4
13/12/2012 12:55:37

Je ne pense pas, le Mutron III n'est plus réédité et vaut une fortune sur le marché de l'occaz. Après je te laisse voir les répliques qui sont bien moins cher mais de qualité inférieure..

0
0
#3
13/12/2012 11:59:29
ah ouais quand même, on peut pas en avoir en occas pour 50e ?
0
0
#2
13/12/2012 11:58:11

Ca oscille entre 100 et 200. Flea joue cette chanson avec la pédale d'effet "Mutron".

0
0
#1
13/12/2012 11:54:04
ça coûte combien les pédales d'effet phaser ??
0
0

En Live

Gwlolos a commenté le topic [problème grésilllemnt ampli] de escaliyo il y a 4 heures
Ray a voté pour le message de Mat 31 il y a 1 jour
Pat et Hipi Débwa ont commenté le topic [Morceaux raggae] de Sasou il y a 1 jour
Sasou vient tout juste de rejoindre la communauté Slappyto. Bienvenue ! il y a 2 jours
Captain Biftek a voté pour le message de briciu il y a 2 jours