ConnexionConnexionInscription
B E A D G
153 connectés Aller à Sweepyto Guitare

Pink Floyd - Another Brick In The Wall (Part II)

Publié par le
12/08/2006
64984 vues
Débutant 2
Vitesse NormaleNormal speed Vitesse RalentieSlow down speed
G||----------------------|----------------------|----------------------|
D||----------------------|----------------------|----------------------|
A||--5----5--3--5--------|--5------5--0----3----|--5----5--3--5--------|
E||----------------------|----------------------|----------------------|



|----------------------|-------------------|-------------------|
|----------------------|-------------------|-------------------|
|--5------5--0----3----|-------------------|-------------------|
|----------------------|--3----------------|--3----------------|



|--------------------|----------------------|----------------------|
|--------------------|----------------------|----------------------|
|--------------------|-----------------3/---|--5----5--3--5--------|
|--3--------3--------|--3----3----3---------|----------------------|



|----------------------|----------------------||
|----------------------|----------------------||
|--5------5--0----3----|--5----5--3--5--------||
|----------------------|----------------------||


Allé, un petit groove super connu pour commencer la journée. Pas de grosse difficulté sur celui là.
ps : y'a un slide signalé sur la tablature je ne le joue pas car jene supporte pas les slide de deux cases sur des basse frettée...c ignoble...chacun ses gouts

2 Commentaires

1 2 3 4 5
2 notes
Notes pour Another Brick In The Wall (Part II) - Pink Floyd - Cours de basse vidéo | Slappyto : 5/5 sur 2 notes
#2
14/02/2012 16:43:58
C'est vrai qu'en drop D c'est mieux, car en écoutant bien l'originale, la première note du "riff" est un Ré à l'octave en dessous.
0
0
#1
01/09/2011 14:21:08

Merci pour le cours. Ca sonne beaucoup mieux en Drop D.

0
+1

En Live

Golmout80 vient tout juste de rejoindre la communauté Slappyto. Bienvenue ! il y a 10 heures
Skydrover a commenté le topic [30 W tout lampes, suffisant ?] de skydrover il y a 11 heures
Skydrover a commenté le topic [30 W tout lampes, suffisant ?] de skydrover il y a 12 heures