ConnexionConnexionInscription
B E A D G
154 connectés Aller à Sweepyto Guitare

Jamiroquai - Runaway - Refrain

Publié par le
22/10/2006
38981 vues
Moyen 2
Vitesse NormaleNormal speed Vitesse RalentieSlow down speed
Refrain 1 :
G|------------3H5----------5-----------------------------------|
D|-----------------------------5-------------66----------6---5-|
A|3-3-X3-X3------3-3-X3-X3-------------------------------------|
E|---------------------------3---4-4-X4-X4-----4-4-X4-X4---3---|

G|----------------------------------------------------3H5------3H5|
D|-------------------------------------------------3H5------3H5---|
A|---------------------------\-6-6-X6-X6-6-X6-X5-5-------4-4------|
E|1-1-X1-X1---\-0-0-X0-X0--/--------------------------------------|

Refrain 2 :
G|------------3H5-----------3H53----------------------------------|
D|-----------------------3H5----5-------------4-X6----------6---5-|
A|3-3-X3-X3------3-3-X3-X------------------4H6--------------------|
E|--------------------------------4-4-X4-X4-------4-4-X4-X4---3---|

G|----------------------------------------------------3H5------3H5|
D|-------------------------------------------------3H5------3H5---|
A|---------------------------\-6-6-X6-X6-6-X6-X5-5-------4-4------|
E|1-1-X1-X1---\-0-0-X0-X0--/--------------------------------------|
Bon, comme ça la tab est assez longue mais pas d'inquiétude, c'est plus ou moins deux fois la même chose, avec deux variations en plus sur le second. Il suffit de bien choper le rythme de base, et le reste va tout seul. Attention aux deux hammers, de Fa à Sol puis de La# à Do respectivement, bien placés à la fin.

1 Commentaire

1 2 3 4 5
4 notes
Notes pour Runaway - Refrain - Jamiroquai - Cours de basse vidéo | Slappyto : 4/5 sur 4 notes
#1
04/07/2015 11:28:52
Yo merci pour le partage !

A la fin du second riff, j'avais plus cette version en tête/dans les doigts:
G|----------------------------------------------------5H7------4H6|
D|-------------------------------------------------5H7------4H6---|
A|---------------------------\-6-6-X6-X6-6-X6-X5-5-------4-4------|
E|1-1-X1-X1---\-0-0-X0-X0--/--------------------------------------|
C'est un peu plus 'chiant' à jouer que ta version mais ... au final  ... ça ne groove pas beaucoup plus, du coup ta version est plus rentable !
0
0

En Live

Chirac et Mushaloni ont commenté le topic [Besoin d'un bricoleur !] de Mushaloni il y a 3 heures
Manyak et Wario ont commenté le topic [Photos de vos basses] de lucas il y a 1 jour