ConnexionConnexionInscription
B E A D G
118 connectés Aller à Sweepyto Guitare

Metallica - For Whom The Bell Tolls (intro)

Publié par le
04/07/2007
36531 vues
Moyen 1
Vitesse NormaleNormal speed Vitesse RalentieSlow down speed
G|--19-18-17-16--1916|------19----------|
D|-------------------|17-16-------------| x3 (7 dans le morceau)
A|-------------------|---------17-16----|
E|-------------------|------------------|
B BR
G|--19-18-17-16--1916|------19----19--19--|
D|-------------------|17-16---------------| x3 (7 dans le morceau)
A|-------------------|---------17---------|
E|-------------------|--------------------|
Une intro mythique de Metallica, époque Cliff Burton. C'est un plan de chromatismes dans les aigus, rien de très compliqué, il suffit juste de brancher la wha et la disto pour s'y croire! (ben oui ça donne forcément moins bien sans). Cliff Burton casait un bend à la fin de l'intro, je l'ai remis ici, attention juste à tomber sur la bonne note! A peu près la seule vraie difficulté à part ça.

0 Commentaires : réagissez !

1 2 3 4 5
2 notes
Notes pour For Whom The Bell Tolls (intro) - Metallica - Cours de basse vidéo | Slappyto : 5/5 sur 2 notes
Aucun commentaire !

En Live

Alejandrobaixo et tomioux ont commenté le topic [musicman sterling USA ] de 3dd-titix il y a 2 jours
Alejandrobaixo vient tout juste de rejoindre la communauté Slappyto. Bienvenue ! il y a 2 jours
Vaudoo-audio vient tout juste de rejoindre la communauté Slappyto. Bienvenue ! il y a 2 jours
Popolito et Zang ont commenté le topic [Stingray 2eq teal green] de popolito il y a 3 jours
Popolito a commenté le topic [Mesa Boogie M-Pulse 600] de popolito il y a 6 jours
GMI et yaumegui ont commenté le topic [Sangle Levy's Néoprène noire 635 mm NEUVE] de GMI il y a 6 jours
Dipching, Fossile, Mat 31 et Manmane ont commenté le topic [Vend basse 5 cordes Cort GB75 Bradée à 200€] de Fossile il y a 1 semaine