ConnexionConnexionInscription
B E A D G
131 connectés Aller à Sweepyto Guitare

Téléphone - Ca c'est vraiment toi!

Publié par le
05/01/2009
42028 vues
Débutant 3
Vitesse NormaleNormal speed Vitesse RalentieSlow down speed
G----------------------------------------------------------------------------------
D------------------------4-7-------------------------------4-7---------------------
A--------------------5-5----------4-7-----9-7----------5-5----------4-7-----9-7----
E--------7---0-0-4-7----------5-5-----7-7------0-0-4-7----------5-5-----7-7------0-

Intro du la chanson "Ca c'est vraiment toi" du groupe Téléphone
Cette chanson est extraite de l'album "Dure limite", et date de 1982

Un air trés mélodique, on reconnait la chanson à coup sur!!

La basse de cette chanson est constituée d'un riff en croches régulières.
Ce riff est joué à l'unisson avec l'une des 2 guitares...

A jouer aux doigts ou au médiator, en tout cas ça reste un exercie de déliateur sympa pour la main gauche!


Aller vos basses vous réclament...à l'appel du tube!!!

3 Commentaires

1 2 3 4 5
7 notes
Notes pour Ca c'est vraiment toi! - Téléphone - Cours de basse vidéo | Slappyto : 5/5 sur 7 notes
#3
21/08/2012 15:16:03
Ce qui est sym pa avec ce riff, c'est qu'a aprtir du moment ou tu le maitrisem, meme si t'es un debutant comme (3 mois environ), t'as l'air bien meilleur que ce que tu es reelement aux yeux des gens.

ah, et belle basslign au fait!
0
0
#2
18/04/2011 17:40:33
G|--------------------------2--------------------------------------2---------------------
D|--------------------0-0-4-----------2----4-2----------0-0-4----------2-----4-2----
A|-------2---------2----------0-0-4---0-0------------2----------0-0-4---2-2--------
E|------------0-0-4-----------------------------0-0-4-------------------------------0-

(Quelques problèmes dans l'affichage de ma première tab, je rectifie.. espérons que ça marche !)
0
0
#1
18/04/2011 17:35:32
Salut ! Merci pour la tab elle est sympa !
Cependant je préfère jouer ce morceau sur les 4 cordes afin d'éviter trop de déplacements sur le manche. Comme ça:

G|--------------------------2---------------------------------2---------------------
D|--------------------0-0-4-----------2----4-2----------0-0-4----------2-----4-2----
A|--------2---------2----------0-0-4---0-0------------2----------0-0-4---2-2--------
E|------------0-0-4-----------------------------0-0-4-----------------------------0-

(Je ne sais pas si la tab est tout à fait correcte mais c'est à peu près ça)

Bonne journée ! :D
0
0

En Live

Patrick30 vient tout juste de rejoindre la communauté Slappyto. Bienvenue ! il y a 15 heures
Bronsted a commenté le topic [Erreur impédance Hartke LH 500] de xenfeild il y a 3 jours
Cricriii a commenté le topic [Erreur impédance Hartke LH 500] de xenfeild il y a 3 jours
Fawnmw vient tout juste de rejoindre la communauté Slappyto. Bienvenue ! il y a 5 jours
Livingjones vient tout juste de rejoindre la communauté Slappyto. Bienvenue ! il y a 6 jours
GagiNS vient tout juste de rejoindre la communauté Slappyto. Bienvenue ! il y a 1 semaine
ROMABASS a commenté le wall de voschielle il y a 1 semaine
ROMABASS a commenté le topic [VDS GALLIEN KRUEGER RBX 210 190€] de voschielle il y a 1 semaine