ConnexionConnexionInscription
B E A D G
138 connectés Aller à Sweepyto Guitare

Two Door Cinema Club - What you know - refrain

Publié par le
18/11/2010
9577 vues
Moyen 1
Vitesse NormaleNormal speed Vitesse RalentieSlow down speed
  '  '   '   '    '   '   '    '    '   '   '   '    '   '   '   '    '   '   '   '    '   '   '    '   
G-----------------|-----------------|----------------|----------------|----------------|-----------------|-
D-4-44--4-4-44--4-|4-44--4~11~--6---|----------------|--------7~--2-4-|0-00--0-0-00--0-|0-00--0~11~--7---|-
A-----------------|-----------------|0-00--0-0-00--0-|0-00--0---------|----------------|-----------------|-
E-----------------|-----------------|----------------|----------------|----------------|-----------------|-


' ' ' ' ' ' ' '
G-----------------|-----------------|--
D-----------------|-------------2---|--
A-----------------|--------4--------|--
E-2-22--2-2-22--2-|2-22--2----------|--

La principale difficulté de ce riff vient des slides et des rapides déplacement le long du manche. Il existe des tablatures plus simples, mais je pense qu'on obtient pas le même son et les mêmes effets. L'originalité de la basse vient de l'alternance entre notes jouées en haut du manche (avec un son plus "clinquant", très "piqué") avec des notes slidées en haut du manche (avec un son moins "précis"), le tout avec des enchaînements très rapides.

 

J'ai également décidé de doubler les notes à contre-temps (c'est ce que j'entends sur le morceau, mais je ne suis pas sûr à 100%). Le plus difficile n'est pas de les jouer, mais d'étouffer la corde juste après.

 

Pour le son, préférez un jeu au médiator, mettez en avant basse et aigus, et compressez beaucoup.

Tags : slides stops

1 Commentaire

1 2 3 4 5
3 notes
Notes pour What you know - refrain - Two Door Cinema Club - Cours de basse vidéo | Slappyto : 3/5 sur 3 notes
#1
03/04/2011 01:08:29

Merci, moi qui cherchait comment jouer du Two Door Cinema Club, heureux que tu es mis cette video  

0
0

En Live

Gomazio56 vient tout juste de rejoindre la communauté Slappyto. Bienvenue ! il y a 2 jours
Wario a commenté le topic [videothèque des sons] de mr gone il y a 4 jours
Lwyfs vient tout juste de rejoindre la communauté Slappyto. Bienvenue ! il y a 5 jours
Remitobass vient tout juste de rejoindre la communauté Slappyto. Bienvenue ! il y a 1 semaine
Papihendrix vient tout juste de rejoindre la communauté Slappyto. Bienvenue ! il y a 1 semaine
Services vient tout juste de rejoindre la communauté Slappyto. Bienvenue ! il y a 2 semaines
Haga187 vient tout juste de rejoindre la communauté Slappyto. Bienvenue ! il y a 2 semaines