ConnexionConnexionInscription
B E A D G
176 connectés Aller à Sweepyto Guitare

Red Hot Chili Peppers - Coffee Shop

Publié par le
02/12/2007
45503 vues
Moyen 4
Vitesse NormaleNormal speed Vitesse RalentieSlow down speed
G------------------------------------------2----------|
D-----2---2------2---2---2-------2---2---------X--5---|
A-----------------------------------------------------|
E-0-X---X---0--X---X---X---0-0-X---X---0-X---X--3---3-|
T T P T P T T P T P T P T T T P T P T T P T PT P T

G------------------------------------------2----------|
D-----2---2------2---2---2-------2---2---------X--5---|
A-----------------------------------------------------|
E-0-X---X---0--X---X---X---0-0-X---X---0-X---X--3---3-|
T T P T P T T P T P T P T T T P T P T T P T PT P T
Examinons le plan sans toucher la basse...le premier truc qui vient à l'esprit c'est " attention, je vais dégeuler ! " lol. Et bien oui ça fait un peu peur vu comme ça avec toutes ces croix mais comme vous êtes un(e) bassiste courageux(se), vous aller voir/écouter les ralentis et vous verrez que c'est dans le domaine du possible. Au boulot !

3 Commentaires

1 2 3 4 5
2 notes
Notes pour Coffee Shop - Red Hot Chili Peppers - Cours de basse vidéo | Slappyto : 5/5 sur 2 notes
#3
01/03/2011 17:10:00
Meuh non j ai enregistré tous les plans dans la meme soirée :-)
0
0
#2
01/03/2011 17:02:19

T'as un pull spécial cours slappyto?   Super cours à part sa, comme d'hab  

0
0
#1
12/02/2011 22:55:56
merci bien!!!!mais comme chui pas débutant en slap, je devrais commencer par autre chose !mais ce morceau est tellement bien!!!!!!!   
0
0

En Live

Kyhr, Groumph!, Cell et Malicia ont commenté le topic [Le Topic du Freepost 7] de Vikie il y a 1 semaine
Cell et Groumph! ont commenté le topic [La mort de Slappyto?] de kurt il y a 4 semaines
Cell et Poppy ont voté pour le message de Poppyto il y a 4 semaines
Cell a voté pour le message de MasterFailure il y a 1 mois
Cell a voté pour le message de grobass il y a 1 mois
Cell a commenté le topic [une chope s'il vous plait !] de Adrien21 il y a 1 mois
Groumph! a voté pour le message de MasterFailure il y a 1 mois