ConnexionConnexionInscription
B E A D G
117 connectés Aller à Sweepyto Guitare

Red Hot Chili Peppers - Get on top

Publié par le
02/12/2007
46921 vues
Avancé 3
Vitesse NormaleNormal speed Vitesse RalentieSlow down speed
G----------7----------------|----------7----------------|
D-------------------5-------|-------------------5-------|
A---------------------------|---------------------------|
E-0--0-0-X---0--0-0---0h3h0-|-0--0-0-X---0--0-0---0h3h0-|
T T T T P T T T P T T T T T T T T P T

G----------7----------------|----------7----------------|
D-------------------5-------|---------------7-7-7-8-8-9-|
A---------------------------|---------------------------|
E-0--0-0-X---0--0-0---0h3h0-|-0--0-0-X---0--------------|
T T T T P T T T P T T T T T P T
Waou c'est chaud ça. Bon ok, y'a pire, mais à votre niveau, votre pouce va devoir bosser...De plus le groove à la main gauche certes plus ou moins aléatoire demande une bonne maîtrise de l'instrument (c'est la basse pour vous non? ;oP).Alors bon courage et enjoy :o)

Waou difficult !! OK, there are worse plans , but you've got a godd level, your thumb must work very hard... Futhermore the groove with left hand (which is a bit ramdom) need a good mastery of your instrument. (I think it's the bass for you, is it ? ;op ). So be brave and enjoy :o)

0 Commentaires : réagissez !

1 2 3 4 5
0 notes
Aucun commentaire !

En Live

Saikodoll vient tout juste de rejoindre la communauté Slappyto. Bienvenue ! il y a 2 jours
Bertrand44 vient tout juste de rejoindre la communauté Slappyto. Bienvenue ! il y a 3 jours
OLIVIER59500 vient tout juste de rejoindre la communauté Slappyto. Bienvenue ! il y a 3 jours
Jazzbassfoufou vient tout juste de rejoindre la communauté Slappyto. Bienvenue ! il y a 4 jours
MrSpit a commenté le topic [Sandberg Fretless] de MrSpit il y a 4 jours