ConnexionConnexionInscription
B E A D G
209 connectés Aller à Sweepyto Guitare

Jamiroquai - Main vein (Refrain)

Publié par le
30/03/2006
52657 vues
Débutant 4
Vitesse NormaleNormal speed Vitesse RalentieSlow down speed
G--------11-11---------|--11-11-------------11--|
D----------------------|------------------------|
A--9--9----------------|--------9-9--5-/-9------|
E---------------7--9-9-|------------------------|

G-----------------|------------------|
D--------7--------|------------------|
A--7--9-----7--9--|-----------7-X-9--|
E-----------------|--7--8--9---------|
Comme pour l'autre exos concernant ce morceau, gardez bien à l'ésprit qu'il vous faut faire des notes aussi "sèches" que possible en prenant garde à s'appliquer sur les sauts de cordes, courage ce n'est pas bien difficile à mettre en place ;-)

0 Commentaires : réagissez !

1 2 3 4 5
0 notes
Aucun commentaire !

En Live

Kyhr et Cell ont commenté le topic [La mort de Slappyto?] de kurt il y a 1 jour
Kyhr, Cell et Malicia ont commenté le topic [Le Topic du Freepost 7] de Vikie il y a 1 semaine
Cell et Poppy ont voté pour le message de Poppyto il y a 1 mois
Cell a voté pour le message de MasterFailure il y a 1 mois
Cell a voté pour le message de grobass il y a 1 mois
Cell a commenté le topic [une chope s'il vous plait !] de Adrien21 il y a 1 mois