ConnexionConnexionInscription
B E A D G
159 connectés Aller à Sweepyto Guitare

King Bees - My Mistake [ Artiste ]

Publié par le
21/11/2010
3993 vues
Moyen 3
http://www.youtube.com/watch?v=Az5YBdtSE9Y
    
        

**********************
King Bees : My Mistake
**********************

Intro :
G|--------|--------|--------|--------|
D|--------|--------|--------|--------|
A|----5454|----5454|----5454|----5454|
E|0034----|0034----|0034----|0034----|

Verse :
G|--------|--------|--------|--------|--------|--------|--------|--------|
D|--------|--------|--------|--------|--------|--------|--------|--------|
A|--------|--------|----5454|----5454|--------|--------|----5454|----5421|
E|00340034|00340034|0034----|0034----|00340034|00340034|0034----|0034----|

Chorus :
G|--------|--------|--------|--------|
D|--------|--114401|2200----|--------|
A|00000001|22------|----22--|----5454|
E|--------|--------|------44|0034----|

Bridge :
G|--------|--------|
D|--------|--------|
A|----5454|----5454|
E|0034----|0034----|

Verse 2 :
G|--------|--------|--------|--------|--------|--------|--------|--------|
D|--------|--------|--------|--------|--------|--------|--------|--------|
A|--------|--------|----5454|----5454|--------|--------|----5454|--------|
E|00340034|00340034|0034----|0034----|00340034|00340034|0034----|00223340|

Chorus 2 :                           |: 2x                              :|
G|--------|--------|--------|--------|--------|--------|--------|--------|
D|--------|------01|2200----|--------|--------|------01|2200----|--------|
A|00000001|222222--|----22--|----5454|--114411|004022--|----22--|----5454|
E|--------|--------|------44|0034----|22------|--------|------44|0034----|

Solo :
G|--------|--------|--------|--------|--------|--------|--------|--------|
D|--------|--------|--------|--------|--------|--114401|2200----|--------|
A|--------|----5454|--------|----5421|00000001|22------|----22--|--------|
E|00340034|0034----|00340034|0034----|--------|--------|------44|00340034|

G|--------|----44--|----7676|--------|--------|--------|--------|--------|--------|--------|
D|--56--56|--56--56|--56----|--------|--------|--114401|22222222|2200----|--------|--------|
A|77--77--|77------|77------|77554321|00000001|22------|--------|----24--|----5454|----5454|
E|--------|--------|--------|--------|--------|--------|--------|------34|0034----|0034----|

Verse 2
Chorus
Verse
Chorus 2
Outro :                                                                   (fading out)
G|--------|--------|--------|--------|--------|--------|--------|--------|--------|--------|--------|--------|
D|--------|------01|2200----|--------|--------|--------|2200----|--------|--------|------01|2200----|--------|
A|--114411|004022--|----22--|----5454|--------|00002222|----24--|----5454|--114411|004022--|----22--|--------|
E|22------|--------|------44|0034----|22222224|--------|------34|0034----|22------|--------|------44|0-------|

Visit http://basse.over-blog.com for other bass tabs.
Visitez http://basse.over-blog.com pour d'autres tablatures pour basse.
    
    

0 Commentaires : réagissez !

1 2 3 4 5
2 notes
Notes pour My Mistake Basse Tab - (King Bees) | Slappyto : 5/5 sur 2 notes
Aucun commentaire !

En Live

Lebollos59 vient tout juste de rejoindre la communauté Slappyto. Bienvenue ! il y a 5 heures
GregRock vient tout juste de rejoindre la communauté Slappyto. Bienvenue ! il y a 7 heures
Chris927 vient tout juste de rejoindre la communauté Slappyto. Bienvenue ! il y a 4 jours
Greeshma vient tout juste de rejoindre la communauté Slappyto. Bienvenue ! il y a 5 jours
Ludo ZEFISH vient tout juste de rejoindre la communauté Slappyto. Bienvenue ! il y a 5 jours
Nicobass1793 vient tout juste de rejoindre la communauté Slappyto. Bienvenue ! il y a 6 jours
Indonesiae vient tout juste de rejoindre la communauté Slappyto. Bienvenue ! il y a 1 semaine
Grandbill a commenté la tablature de Coup_de_pelle il y a 1 semaine
Grandbill a voté pour la tablature de Coup_de_pelle il y a 1 semaine