ConnexionConnexionInscription
B E A D G
152 connectés Aller à Sweepyto Guitare

Amy Winehouse - Hey little rich girl [ Artiste ]

Publié par le
20/02/2011
5524 vues
Débutant 4
    
        

Hey little rich girl                                                 
Amy Winehouse
DVD Live in London


Intro

     Cm7                                           Bb                                          
G||----------------------|----------------------|----------------------|----------------------|
D||-------1--------------|-------1--------------|----------------------|----------------------|
A||--3--------------1----|--3--------------3----|--1----5----8----5----|-------5----8----5----|
E||------------3---------|------------3---------|----------------------|--6-------------------|


  Cm7                                           Bb                                                      
----------------------|----------------------|----------------------|--------------------|
-------1--------------|-------1--------------|-----------------5----|--8-----------------|
--3--------------1----|--3--------------3----|--1----5----8---------|--------------------|
------------3---------|------------3---------|----------------------|--------------------|



Couplet

     Cm7                                           Bb                                          
G||----------------------|----------------------|----------------------|----------------------|
D||-------1--------------|-------1--------------|----------------------|----------------------|
A||--3--------------1----|--3--------------3----|--1----5----8----5----|-------5----8----5----|
E||------------3---------|------------3---------|----------------------|--6-------------------|


  Cm7                                           Bb                                                      
----------------------|----------------------|----------------------|----------------------|
-------1--------------|-------1--------------|-----------------5----|--8----5--------------|
--3--------------1----|--3--------------3----|-------5----8---------|------------8----5----|
------------3---------|------------3---------|--6-------------------|----------------------|


 
Refrain     
                                   
------------------------|--------------------------|-----------------------|--------------------|
---------------8--10----|----------------10--12----|--8----10----8----7----|--5----7----5-------| 2x
--6-----8--10-----------|--8-----10--12------------|-----------------------|-----------------8--|
------------------------|--------------------------|-----------------------|--------------------|


------------------------|--------------------------|----------------------|--------------------|
---------------8--10----|----------------10--12----|--8----5--------------|--------------------|
--6-----8--10-----------|--8-----10--12------------|------------8----5----|--------------------|
------------------------|--------------------------|----------------------|--6-----------------|


Bridge

   Eb                         C                        
--------------------------|--------------------------|
--------------------------|--------------------------|
--6--6------x-6--6-----x--|--3--3------x-3--3-----x--|
--------------------------|--------------------------|


  G                          F                          Eb                         C                        
-----------------------|-----------------------|------------------------|------------------------|
-----------------------|-----------------------|------------------------|------------------------|
----------x----------x-|----------x----------x-|--6--6-----x-6--6-----x-|--3--3-----x-3--3-----x-|
--3--3------3--3-------|--1--1------1--1-------|------------------------|------------------------|


  G                                                     Eb                         C                        
-----------------------|-------------------------|-----------------------|-----------------------|
-----------------------|-------------------------|-----------------------|-----------------------|
----------x----------x-|--------------------5--5-|--6--6----x-6--6-----x-|--3--3----x-3--3-----x-|
--3--3------3--3-------|--3--3--5--5--6--6-------|-----------------------|-----------------------|


   G                             F                          Eb                       Bb                     
--------------------------|------------------------|-----------------------|----------------------|
--------------------------|------------------------|-----------------------|----------------------|
--10--10---x-10--10-----x-|--8--8-----x-8--8-----x-|--6-----6-----6----8---|--1-----1-----1----2--|
--------------------------|------------------------|-----6-----6-----------|-----3-----3----------|



----------------------|--------------------|
----------------------|--------------------|
--3----5----6----7----|--8-----------------|
----------------------|--------------------|


    
    

1 Commentaire

1 2 3 4 5
1 note
Notes pour Hey Little Rich Girl Basse Tab - (Amy Winehouse) | Slappyto : 3/5 sur 1 note

En Live

Escaliyo et grobass ont commenté le topic [HELP CONFIG AMPLI !] de JR BASS il y a 44 minutes
Escaliyo a voté pour le message de grobass il y a 45 minutes
Escaliyo a commenté le topic [Basse pour débuter ] de Patmustang il y a 8 heures
Ray a voté pour le message de grobass il y a 19 heures
Jerem65 et grobass ont commenté le topic [Et vous, vous écoutez quoi maintenant ?] de nono il y a 19 heures