ConnexionConnexionInscription
B E A D G
132 connectés Aller à Sweepyto Guitare

Vanessa Paradis - Chet Baker (Live Divinidylle tour) [ Artiste ]

Publié par le
11/02/2011
3310 vues
Moyen 3
http://www.youtube.com/watch?v=xE0vado6ZLw&feat...
    
        

Chet Baker                                                     
Vanessa Paradis
Divinidylle tour (cd)

Le lien Utube (http://www.youtube.com/watch?v=xE0vado6ZLw&feature=related)
extrait du DVD Divinidylle tour commence à 4:25 et peut être légérement différent dans les variations

Fichier guitar pro et pdf (http://www.filedropper.com/vanessaparadis)

Tout est dans le rythme, écouter attentivement le morceau.

   	intro
G||---|----------------------|----------------------|--------------------|---------------------|
D||---|----------------------|----------------------|--------------------|---------------------|
A||---|--3-------3--------L--|--L-------------3--4--|-------4------------|---------------6--5--|
E||---|----------------------|----------------------|--------------------|---------------------|


----------------------|-----------------------|---------------------|----------------------|
----------------------|-----------------------|--3-------------3----|--5-------------------|
-------5--------------|------------------3s-5-|---------------------|----------------------|
--------------4----3--|-----------------------|---------------------|----------------/3----|



Couplet
----------------------|------------------------|-----------------------|-----------------------|
----------------------|------------------------|-----------------------|-----------------------|
-3--------------------|--3---------------3-----|--4--------------------|--4------4----------6--|
---------3---------3--|----------3----0-----0--|----------4---------4--|-----------------4-----|

 
----------------------|------------------------|-----------------------|-----------------------|
----------------------|------------------------|-----------------------|-----------------------|
-5-------5------------|------------------------|-----------------------|-----------------------|
-----------------4----|--3-------3----0h--2b---|--4-------4S------6S---|--3-------3---------3--|
                                                                                            
 
-----------------------|-----------------------|
-----------------------|-----------------------|
-----------------3-----|--1-------1------1--2--|
--1-------1---------3--|-----------------------|



PRE REFRAIN
-----------------------|-----------------------|
----------------1S--3--|-----------------------|
--3------3-------------|--1-------1---------3--|
-----------------------|-----------------------|

                                                                                 REFRAIN                      
-----------------------|-------------------------|----------------------|----------------------|
--3--------------3-----|-3S-5--5-6br-5s--3-------|-----------5----3-----|----------------------|
---------3----------3--|--------------------5--3-|--------5----------5--|--3--------------1----|
-----------------------|-------------------------|--3-------------------|--------3-----3-----3-|

  
-----------------------|------------------------|-----------------------|----------------------|
-----------------------|------------------------|-----------------------|----------------------|
--3--------------6-----|--4------------------3--|--4--------------6-----|--5-------5-----------|
--------3-----3-----3--|----------4-------------|---------4----4-----4--|-----------------4----|


------------------------|----------------------|---------------------|-------------------------|
---------5--------5-----|--3-------------------|---------------------|-------------------------|
---------------5-----5--|---------3------------|---------------------|-------------------1-----|
--3---------------------|----------------1--2--|--3------------1S----|--8-------3-----x-----3--|


------------------------|----------------------|----------------------|------------------------|
------------------------|----------------------|----------------------|------------------------|
--3---------------6-----|--4-------------------|--4-------------7--6--|--5-----5-------5s---10-|
----------3----------4--|----------4--------4--|--------4----4--------|-------------5----------|

                                                                                             
----------------------|
----------------------|
---L------------------|
---------3------------|



Couplet 
-----------------------|------------------------|-----------------------|
-----------------------|------------------------|-----------------------|
--3--------3-----------|--3-------3----------3--|--4-------4------------|
--------------------3--|------------------3-----|--------------------4--|
                                                 
 
-----------------------|----------------------|-------------------------|----------------------|
-----------------------|----------------------|----------------5--4--3--|-L--------------------|
--4---------------6----|--5-------5-----------|-------------/5----------|-----3----------------|
----------4------------|-----------------4----|--3----------------------|------------1s--2--3--|

 
-----------------------|----------------------|-------------------------|----------------------|
-----------------------|----------------------|-------------------------|----------------------|
----------------1------|---3------------------|--3----------------------|--4-------------------|
--L--------------------|----------3---------3-|----------3-----3--1--3--|----------4---------4-|


-----------------------|----------------------|-------------------------|----------------------|
-----------------------|----------------------|-------------------------|----------------------|
--4-------4~---------6-|--5------5----5s--8---|-------------------------|----------------------|
------------------4----|----------------------|--3----3------x--1s------|---4-------4------6S--|


						  PRE REFRAIN                                               
-----------------------|----------------------|-----------------------|------------------------|
-----------------------|----------------------|-----------------------|-----------------1S--3--|
-----------------------|-----------------3----|--1------1----x--1--2--|--3-------3-------------|
--3-------3---------3--|--1-------1---------1-|-----------------------|------------------------|


-----------------------|----------------------|-----------------------|------------------------|
-----------------------|--3-------------------|--5------6s--5--3------|------------------------|
--1-------1---------3--|---------3------------|---------------------5-|------------1----2------|
-----------------------|----------------------|-----------------------|--3------3--------------|



REFRAIN                                    
-----------------------|----------------------|-----------------------|------------------------|
-----------------------|----------------------|-----------------------|------------------------|
--3--------------1-----|--3-------------6-----|--4--------------4-----|--4---------------6-----|
---------3----------3--|-------3-----3-----3--|----------4---------4--|----------4----------4--|

  
-----------------------|----------------------|-----------------------|------------------------|
-----------------------|--------5-------5-----|--3--------------------|------------------------|
--5-------5------------|-------------5-----5--|---------3-------------|--------------1s--2-----|
-----------------4-----|--3-------------------|----------------1------|--3---------------------|



REFRAIN (varition)                                                        
-----------------------|----------------------|-----------------------|
-----------------------|----------------------|-----------------------|
--3--------------1-----|--3-------------6-----|--4------------------3-|
--------3-----------3--|-------3-----3-----3--|----------4------------|


-----------------------|----------------------|-----------------------|------------------------|
-----------------------|----------------------|---------5------4------|--3------------3--------|
--4--------------6-----|--5------5-------5----|-----------------------|-----3------------------|
--------4-----4-----4--|--------------5-------|--3--------------------|--------1---------1--2--|


-----------------------|----------------------|-----------------------|------------------------|
--------5--------------|----------------------|-----------------------|------------------------|
-----5-----------5--4--|--3-------------1--2--|--3--------------3-----|--4------------------3--|
--3-----------3--------|-------3--3-----------|--------3-----3-----3--|---------4-----3--4-----|


-----------------------|----------------------|-----------------------|------------------------|
-----------------------|----------------------|-----------5--4--3-----|------------------------|
--4-----------6-----5--|L---5-----5--8--9--10-|--------------------5--|--3------------------2--|
-----------4-----4-----|----------------------|--10--3----------------|---------3-----1--3-----|



-----------------------|----------------------|-----------------------|------------------------|
-----------------------|----------------------|-----------------------|------------------------|
--3--------------6-----|--4----------------3--|--4--------------6-----|--5------5-----5--5s----|
--------3-----3-----4--|-------4-----3--4-----|--------4-----4-----4--|------------------------|


-----------------------|
-----------------------|
--10-------------------|
---------3-------------|


Final
-----------------------|----------------------|-----------------------|------------------------|
-----------------------|----------------------|-----------------------|------------------------|
--3-------3------------|--3-------3-----------|--3-------3------------|--3----------------1----|
-----------------------|-----------------3----|--------------------3--|------------3-----------|


-----------------------|----------------------|-----------------------||
-----------------------|----------------------|-----------------------||
--3---------------3----|--Ls--------15--------|---L-------------------||
-----------------------|----------------------|-----------------------||


Tablature Legend
----------------
L - note liée
x - note étouffée
b - bend
br - bendRelease
S - glissé
~ - vibrato

    
    

0 Commentaires : réagissez !

1 2 3 4 5
0 notes
Aucun commentaire !

En Live

Flea888 vient tout juste de rejoindre la communauté Slappyto. Bienvenue ! il y a 9 heures
Skydrover a commenté le topic [30 W tout lampes, suffisant ?] de skydrover il y a 9 heures
Golmout80 vient tout juste de rejoindre la communauté Slappyto. Bienvenue ! il y a 20 heures
Skydrover a commenté le topic [30 W tout lampes, suffisant ?] de skydrover il y a 21 heures
Skydrover a commenté le topic [30 W tout lampes, suffisant ?] de skydrover il y a 22 heures