ConnexionConnexionInscription
B E A D G
125 connectés Aller à Sweepyto Guitare

Calogero - Me dit-elle [ Artiste ]

Publié par le
06/02/2011
5535 vues
Débutant 2
http://www.deezer.com/listen-1162588
    
        

Me dit elle                                                     
Calogero
Pomme C

Simple, mais efficace. A jouer bien énergique


0:30 entrée de la basse
	 F#                                                                        
G||------------------------|-------------------------|
D||-4--4-----4--4--4-----4-|-4--4-----4--4--4--2-----| 4x
A||------------------------|----------------------4--|
E||------------------------|-------------------------|


Thème du couplet
    F#                  A                  D                  B                        
-----------------|-----------------|-----------------|-----------------|
-----------------|-----------------|-----------------|-----------------|
-----------------|-----------------|-5-5-5-5-5-5-5-5-|-----------------|
-2-2-2-2-2-2-2-2-|-5-5-5-5-5-5-5-5-|-----------------|-7-7-7-7-7-7-7-7-|


    F#                  A                  D                  B                   
------------------|-----------------|-----------------|----------------|
------------------|-----------------|-----------------|----------------|
------------------|-----------------|-5-5-5-5-5-5-5-5-|----------------|
--2-2-2-2-2-2-2-2-|-5-5-5-5-5-5-5-5-|-----------------|-7\-------------|


    F#                  A                  D                  B                                 
|-----------------|-----------------|-----------------|------------------|
|-----------------|-----------------|-----------------|------------------| 2x
|-----------------|-----------------|-5-5-5-5-5-5-5-5-|------------------|
|-2-2-2-2-2-2-2-2-|-5-5-5-5-5-5-5-5-|-----------------|-0-0-5-7-0-5---4--|


Couplet suivant, toujours la même chose dans le même ordre (Fa#, La, Ré, Si)


Break 3:04

    D                                      E                                                     
-----------------|-----------------|-----------------|-----------------|
-----------------|-----------------|-----------------|-----------------|
-5-5-5-5-5-5-5-5-|-5-5-5-5-5-5-5-5-|-7-7-7-7-7-7-7-7-|-7-7-7-7-7-7-7-7-|
-----------------|-----------------|-----------------|-----------------|

   F#                                      F                                                      
-----------------|-------------------|-----------------|-----------------|
-----------------|-----------------4-|-3-3-3-3-3-3-3-3-|-3-3-3-3-3-3-3-3-|
-----------------|--------------5----|-----------------|-----------------|
-2-2-2-2-2-2-2-2-|-2-2-2-2-2-5-------|-----------------|-----------------|



Répéter jusqu'à la fin
    D                                      E                          E                       
|-----------------|-----------------|------------------------|-----------------------|
|-----------------|-----------------|------------------------|-----------------------|
|-5-5-5-5-5-5-5-5-|-5-5-5-5-5-5-5-5-|------------------------|-----------------------|
|-----------------|-----------------|-0--0--5--7--0--0--5--7-|-0--0--5--7--0--5----4-|


  F#                                        F                                                        
-----------------|-------------------|-----------------|------------------|
-----------------|-----------------4-|-3-3-3-3-3-3-3-3-|-3-3-3-3-3-3-3-3--|
-----------------|--------------5----|-----------------|------------------|
-2-2-2-2-2-2-2-2-|-2-2-2-2-2-5-------|-----------------|------------------|

    
    

1 Commentaire

1 2 3 4 5
3 notes
Notes pour Me Dit-elle Basse Tab - (Calogero) | Slappyto : 5/5 sur 3 notes
#1
08/08/2012 17:52:25
merçi milpat pour cet exelent morceau de basse de calo si tu en a d autre je suis preneure papiendrix et que sa groove
0
0

En Live

Fiwa62824 vient tout juste de rejoindre la communauté Slappyto. Bienvenue ! il y a 18 heures
Yo_run a commenté le dossier de alper il y a 1 jour
Yo_run a voté pour le dossier de alper il y a 1 jour
Yo_run vient tout juste de rejoindre la communauté Slappyto. Bienvenue ! il y a 1 jour
Gcs79460 vient tout juste de rejoindre la communauté Slappyto. Bienvenue ! il y a 4 jours
Bad+ vient tout juste de rejoindre la communauté Slappyto. Bienvenue ! il y a 5 jours
Dudu67460 vient tout juste de rejoindre la communauté Slappyto. Bienvenue ! il y a 6 jours
Friday1 vient tout juste de rejoindre la communauté Slappyto. Bienvenue ! il y a 6 jours