ConnexionConnexionInscription
B E A D G
123 connectés Aller à Sweepyto Guitare

Amy Winehouse - Just friends [ Artiste ]

Publié par le
20/02/2011
7568 vues
Débutant 3
http://www.youtube.com/watch?v=freVpNNH5LI&feat...
    
        

Just friends                                                     
Amy winehouse
Live in London


fichier guitar pro 5 http://www.filedropper.com/02amywinehousejustfriendv2
fichier pdf http://www.filedropper.com/amywinehousejustfriendv2

   intro                                                                                           
G||-------------------|-----------------|-------------------|-----------------|
D||-------------------|-----------------|-------------------|-7---------------|
A||--------------5\---|-0---------------|-----------------7-|-----------------|
E||-------------------|-----------------|-------------------|-----------------|


---------------|----------|-------------|--------------|---------------------|
---------------|----------|-------------|-7---7--------|---------------------|
-------------7-|-0--------|-----------7-|---7----------|---------------------|
---------------|----------|-------------|--------------|----------5--5--6--6-|



   couplet 1                                                                               
-------------------------|----------------------|------------------------|-----------------------|
-------------------------|----------------------|------------------------|----------7--------7---|
---------9-----------9-8-|-7--7------7--7-------|---------7-7-------7--6-|-5--5--------5--5------|
-7---7-------7--7--------|--------7--------7--7-|-5--5--------5--5-------|-----------------------|


-------------------------|----------------------|------------------------|------------4--4-------|
-4----4----------4-------|-4-----4------4-------|---------4------------4-|---------4--------4----|
----4---------4------4-4-|-----4----4-------0-1-|-2--2-------2--2--------|-2--2------------------|
-------------------------|----------------------|------------------------|---------------------2-|

 
-------------------------|----------------------|------------------------|-----------------------|
----------4---------4--3-|-2--2------2--2-------|------------------------|---------7--------7--7-|
-2--2--------2---2-------|--------2--------2----|----------7--------7--6-|-5--5-------5--5-------|
-------------------------|--------------------4-|-5--5--------5--5-------|-----------------------|



   pré refrain                                                        
-------------------------|----------------------|------------------------|-----------------------|
-4-----4------4----------|-4---4---------4------|-5---5---------5--------|-5----5---------5------|
---------xg4---------xg4-|----------xg4-------4-|----------xg5-------xg5-|-----------xg5---------|
-------------------------|----------------------|------------------------|---------------------4-|



   refrain                      
-------------------------|----------------------|------------------------|-----------------------|
-----------------------7-|--------------------7-|----------------------7-|-----------7-7-7-----7-|
----------7---------7----|-------7----------7---|-------7-----------7----|-------7------------7--|
-5-----5-----5-----------|-5--5-----5-----------|-5--5-----5-------------|-5--5-----5------------|

 
-------------------------|----------------------|------------------------|-----------------------|
-----------------------7-|--------------------7-|----------------------7-|-----------------------|
-------7------------7----|-------7---------7----|-------7-----------7----|-----------------------|
-5--5-----5--------------|-5--5-----5-----------|-5--5-----5-------------|-5--5--5----5--5--6--6-|



  couplet 2                        
-------------------------|----------------------|------------------------|------------7--7-------|
------------9--------7-9-|----------------------|------------------------|---------7--------7--3-|
----------9--------9-----|-7-7-------7-7-7----7-|-------7-----------7--6-|-5--5------------------|
-7-----7--------7--------|------7-7---------7---|-5--5-----5-----5-------|-----------------------|


-------------------------|----------------------|------------------------|------------4--4-------|
-4--4------------4-------|-4-4---------4--------|---------4------------4-|---------4--------4----|
--------4--4--------4--4-|------4--4-----4--0-1-|-2--2-------2--2--------|-2--2----------------0-|
-------------------------|----------------------|------------------------|-----------------------|


-------------------------|------4--4------------|------------------------|-----------------------|
----------4---------4--3-|-2-2--------2-2-------|-------------9--7-------|---------7--------7----|
-2--2--------2--2--------|-----------------2--1-|-0--0----7---------7--6-|-5--5-------5--5-------|
-------------------------|----------------------|------------------------|-----------------------|


-------------------------|----------------------|------------------------|-----------------------|
-4------4--------4-------|--4------4--------4---|-5------5--------5------|-5------5--------5-----|
------4-------4--------4-|-------4-------4----4-|------5-------5-------5-|------5-------5--------|
-------------------------|----------------------|------------------------|---------------------4-|



  refrain                      
-------------------------|----------------------|------------------------|-----------------------|
-----------------------7-|--------------------7-|----------------------7-|-----------7-7-7-----7-|
----------7---------7----|------7----------7----|-------7----------7-----|-----7------------7----|
-5-----5-----5-----------|-5--5-----5-----------|-5--5-----5-------------|-5--5-----5------------|


-------------------------|----------------------|------------------------|-----------------------|
-----------------------7-|--------------------7-|----------------------7-|-----------------------|
--------7----------7-----|-------7---------7----|-------7----------7-----|-----------------------|
-5---5-----5-------------|-5--5-----5-----------|-5--5-----5-------------|-5--5----0--5--5--6--6-|



  trompette                       
-------------------------|----------------------|------------------------|-------------7-7-------|
-------------11--9--7----|----------------------|------------------------|----------7-------7--3-|
----------9------------9-|-7-7------7-7-7-----7-|---------7---------7--6-|-5--5------------------|
-7---7-------------------|------7-7---------7---|-5--5-------5--5--------|-----------------------|



  pré refrain                                                                                                    
-------------------------|----------------------|------------------------|-----------------------|
-4----4----------4-------|-4-4----------4-------|-5--5-----------5-------|-5--5----------5-------|
---------4--4-------4--4-|------4--4-------4--4-|----------5--------5--5-|-------5--5------------|
-------------------------|----------------------|------------------------|---------------------4-|



  refrain                                                                                                      
-------------------------|----------------------|------------------------|-----------------------|
-----------------------7-|--------------------7-|----------------------7-|-----------7-7-7-----7-|
----------7---------7----|------7----------7----|-------7-----------7----|------7-----------7----|
-5-----5-----5---5-------|-5-5-----5----5-------|-5--5-----5-----5-------|-5-5----5--------------|


-------------------------|----------------------|------------------------|-----------------------|
-----------------------7-|-----------7-7-7----7-|---------------------7--|-----------------------|
-------7------------7----|------7-----------7---|-------7----------7-----|-------8--7--10--------|
----5-----5------5-------|-5-5----5-------------|-5--5-----5----5--------|-5--5------------------|

   
------------------|-----------------||
------------------|-----------------||
-8----------------|-----------------||
----------5-------|-L---------------||



    
    

0 Commentaires : réagissez !

1 2 3 4 5
0 notes
Aucun commentaire !

En Live

Grattos95 et Groumph! ont commenté le topic [Pat est décédé] de khan il y a 6 heures
Alexphalippon vient tout juste de rejoindre la communauté Slappyto. Bienvenue ! il y a 11 heures
Wario, nicobasse et Pasc74 ont commenté le topic [GL Kiloton US 890€] de Wario il y a 1 jour
Seeb vient tout juste de rejoindre la communauté Slappyto. Bienvenue ! il y a 1 jour
Nicobasse a commenté le topic [ATK 300 1996 350euros] de vince75018 il y a 1 jour
Didbass09 a commenté le topic [musicman sterling USA ] de 3dd-titix il y a 1 jour
Capt. Roca 974 et KaKemono ont commenté le topic [Reglage pour grOs tirant nylon] de Capt. Roca 974 il y a 2 jours
JV62 vient tout juste de rejoindre la communauté Slappyto. Bienvenue ! il y a 2 jours
Darkkimhari, MGKS, grobass, Groumph! et erix ont commenté le topic [Basse sur mesure made in China] de darkkimhari il y a 2 jours