ConnexionConnexionInscription
B E A D G
168 connectés Aller à Sweepyto Guitare

Primus - Master Of Puppets [ Artiste ]

Publié par le
23/02/2011
7546 vues
Avancé 3
http://www.youtube.com/watch?v=9USb_OQza44
    
        

?=200

|------------------------|------------------------|------------------------|-----------------------|x3
|-------2--------1-------|------------------------|------------------------|-----------------------|
|------------------------|-5-----4-----3----------|-------2--------1-------|-0---------------------|
|-0--0-----0--0-----0--0-|------------------------|-0--0-----0--0-----0--0-|----0--4--0--3--0--2--0|
  T  T  P  T  T  P  T  T   T     T     T            T  T  P  T  T  P  T  T   P  T  T  T  T  T  T  T

|------------------------|------------------------|------------------------|-----------------------|x2
|------------------------|------------------------|------------------------|-----------------------|
|-------2--------3-------|-4--------3--------2-2--|-------2--------3-------|-----------------------|
|-0--0-----0--0-----0--0-|----0--0-----0--0-------|-0--0-----0--0-----0--0-|-3\-2--0--3\-2--0--3\-2|
  T  T  P  T  T  P  T  T   P  T  T  P  T  T  P T    T  T  P  T  T  P  T  T   T  T  T  T  T  T  T  T

|------------------------|------------------------|------------------------|-----------------------|
|------------------------|------------------------|------------------------|-----------------------|
|-------2--------3-------|-4--------3--------2-2--|-------2--------3-------|-4--------3--------2---|
|-0--0-----0--0-----0--0-|----0--0-----0--0-------|-0--0-----0--0-----0--0-|----0--0-----0--0------|
  T  T  P  T  T  P  T  T   P  T  T  P  T  T  P T    T  T  P  T  T  P  T  T   P  T  T  P  T  T  P

|------------------------|------------------------|------------------------|-----------------------|
|------------------------|------------------------|------------------------|-----------------------|
|-------2--------3-------|-4--------3--------2-2--|-------2--------3-------|-----------------------|
|-0--0-----0--0-----0--0-|----0--0-----0--0-------|-0--0-----0--0-----0--0-|-3\-2--0--3\-2--0--3\-2|
  T  T  P  T  T  P  T  T   P  T  T  P  T  T  P T    T  T  P  T  T  P  T  T   T  T  T  T  T  T  T  T

|------------------------|------------------------|------------------------|-----------------------|
|------------------------|------------------------|------------------------|-----------------------|
|-------2--------3-------|-4--------3--------2-2--|-------2--------3-------|-4--------3--------2---|
|-0--0-----0--0-----0--0-|----0--0-----0--0-------|-0--0-----0--0-----0--0-|----0--0-----0--0------|
  T  T  P  T  T  P  T  T   P  T  T  P  T  T  P T    T  T  P  T  T  P  T  T   P  T  T  P  T  T  P

|------------------------|------------------------|------------------------|-----------------------|
|------------------------|------------------------|------------------------|-----------------------|
|-------2--------3-------|-4--------3--------2-2--|-------2--------3-------|-----------------------|
|-0--0-----0--0-----0--0-|----0--0-----0--0-------|-0--0-----0--0-----0--0-|-3\-2--0--3\-2--0--3\-2|
  T  T  P  T  T  P  T  T   P  T  T  P  T  T  P T    T  T  P  T  T  P  T  T   T  T  T  T  T  T  T  T

|------------------------|---------15----------15---------|-15----------15----------15-----|-13<<<<|
|------------------------|-----14----------14----------14-|---------14----------14---------|-------|
|------------------------|--------------------------------|--------------------------------|-------|
|-3\-2--0--3\-2--0--3\-2-|-12----------12----------12-----|-----12----------12-------------|-------|
  T  T  T  T  T  T  T  T   T   T   T   T   T   T   T   T    T   T   T   T   T   T   T        T
    
    

3 Commentaires

1 2 3 4 5
13 notes
Notes pour Master Of Puppets Basse Tab - (Primus) | Slappyto : 4/5 sur 13 notes
#3
26/10/2019 19:06:29

J'arrive à le jouer mais le passage hyper rapide (à la fin de l'intro), ça merde un peu sinon c'est bon. Je ne pensais pas m'en sortir aussi bien. C'est difficile à jouer.

0
0
#2
08/05/2012 18:18:28
C'est chaud à faire parfaitement, mais ça vaut vraiment le coup.
0
+1
#1
28/11/2011 19:03:04
excellent!
0
0

En Live

Grut vient tout juste de rejoindre la communauté Slappyto. Bienvenue ! il y a 1 jour
3dd-titix et brambasstik ont commenté le topic [Aguilar GS112 avec sa house de protection 300 euro...] de 3dd-titix il y a 1 jour
3dd-titix a commenté le wall de brambasstik il y a 1 jour
Brambasstik vient tout juste de rejoindre la communauté Slappyto. Bienvenue ! il y a 1 jour
Maax a commenté la tablature de papiendrix il y a 2 jours
Maax vient tout juste de rejoindre la communauté Slappyto. Bienvenue ! il y a 2 jours
Rose vient tout juste de rejoindre la communauté Slappyto. Bienvenue ! il y a 2 jours
Tofe et alyson hell ont commenté le topic [Chainage d’effets] de alain8225 il y a 2 jours