ConnexionConnexionInscription
B E A D G
185 connectés Aller à Sweepyto Guitare

The White Stripes - Seven Nation Army [ Artiste ]

Publié par le
10/03/2011
42923 vues
Débutant 1
http://www.youtube.com/watch?v=0J2QdDbelmY
    
        

Riff principal
G------------------
D------5-----------
A-7--7---7-5-3--2--
E------------------

Pré Refrain
G-----------------------------------
D-----------------------------------
A-----------------------------------
E-3-3-3-3-3-3-3-3--5-5-5-5-5-5-5-5--

Solo
G--------------------------------------------
D------5-------------------5-----------------
A-7--7---7-5-3--2-----7--7---7-5-3-5-3-2-----
E--------------------------------------------

Fin
G--------------
D--------------
A-7------7----
E--------------

    
    

7 Commentaires

1 2 3 4 5
7 notes
Notes pour Seven Nation Army Basse Tab - (The White Stripes) | Slappyto : 4/5 sur 7 notes
#7
22/07/2013 08:17:38

merci pour la tab  

0
0
#6
13/10/2012 16:46:12

j ai vu que l'on pouvait varier en :E -------12--12-15-12-10-8-7   pour ce balader sur le manche c'est pas plus court !! 

0
0
#5
22/03/2011 12:21:30
Retirer
Haymos
Il y a pas de basse dans cette musique x)
 tu na qua faire comme çi il ya aver une c un super morceaux a aprendre et en plus c a la mode regarde la video tu vera peut etre une basse lol???????
0
0
#4
22/03/2011 00:28:25
Il y a pas de basse dans cette musique x)
0
0
#3
15/03/2011 11:14:32
merci pour ton comentaire amuse toi bien ,
0
0

En Live

Badhour et yaip ont commenté le topic [Impédance quand tu nous tien] de angenoir3012 il y a 17 minutes
Defreu a commenté le topic [atk300 jap ou sire v7] de defreu il y a 1 heure
Jamusique, grobass et Ray ont commenté le topic [Association de Mots] de Claypool-Fish! il y a 1 heure
Hipi Débwa a voté pour le message de ZumZum il y a 4 heures