ConnexionConnexionInscription
B E A D G
64 connectés Aller à Sweepyto Guitare

MC Madjah - Libre [ Artiste ]

Publié par le
20/03/2011
3291 vues
Débutant 1
http://www.youtube.com/watch?v=E_S3fP5UtH4
    
        

*********************
* MC Madjah : Libre *
*********************

mesure = 4/4, tempo = 88, subdivision (-) = croche
suggestion de réglages :
    micro : 100% manche
    EQ = 100% bass / 0% mid / 0% treble

Intro :
 |: 12x  :|
G|--------|
D|--------|
A|--------|
E|--------|

Couplet :
G|--------|--------|--------|--------|--------|--------|--------|--------|
D|--------|--------|------3-|--------|--------|--------|------3-|--------|
A|1-+11-+-|1-+11---|1-+11---|1-+11---|1-+11-+-|1-+11---|1-+11---|1-+11---|
E|--------|------1-|--------|------1-|--------|------1-|--------|------1-|

Pont :
G|--------|--------|--------|--------|
D|--------|--------|--------|--------|
A|--------|--------|--------|--------|
E|--------|--------|--------|--------|

Couplet
Couplet

Pont 2 :
G|--------|--------|--------|--------|
D|--------|--------|--------|--------|
A|1-+11-+-|1-+11---|1-+-----|--------|
E|--------|------1-|--------|--------|

Couplet
Couplet

Couplet 2 :
G|--------|--------|--------|--------|--------|--------|--------|--------|
D|--------|--------|------3-|--------|--------|--------|------3-|--------|
A|1-+11-+-|1-+11---|1-+11---|1-+11-+-|1-+11-+-|1-+11---|1-+11---|1-+11---|
E|--------|------1-|--------|--------|--------|------1-|--------|------1-|

Pont

Finale :
G|--------|--------|--------|--------|--------|--------|--------|--------|
D|--------|--------|------3-|--------|--------|--------|------3-|--------|
A|1-+11-+-|1-+11---|1-+11---|1-+11---|1-+11-+-|1-+11---|1-+11---|1-+11-+-|
E|--------|------1-|--------|------1-|--------|------1-|--------|--------|

=========================================================================================================================
Légende : + = étouffer la corde (stopper le son)
          |: Nx :| = répéter N fois le passage entre |: et :|
=========================================================================================================================

Visitez http://www.ilovetabs.com pour d'autres tablatures "+R" pour guitare basse.

    
    

0 Commentaires : réagissez !

1 2 3 4 5
0 notes
Aucun commentaire !

En Live

Nicobass62 a commenté le topic [Markbass Mark Stand] de tenil il y a 9 heures
Nicobass62 vient tout juste de rejoindre la communauté Slappyto. Bienvenue ! il y a 9 heures
Magnagna vient tout juste de rejoindre la communauté Slappyto. Bienvenue ! il y a 9 heures
Koches et gozo ont commenté le topic [Vds/éch HAMER jazzbass USA - 800€] de gozo il y a 15 heures
Furylax et MC82 ont commenté le topic [Une basse Rock pour une graaaaaande fille] de Furylax il y a 1 jour
Bilbaroud a voté pour le message de grobass il y a 1 jour
MC82 a commenté le topic [mon groupe the lookers] de Lookersbass il y a 1 jour
MC82 et grobass ont commenté le topic [[Ibanez GSR200] Votre avis ?] de Torus il y a 1 jour
Furylax vient tout juste de rejoindre la communauté Slappyto. Bienvenue ! il y a 1 jour