ConnexionConnexionInscription
B E A D G
92 connectés Aller à Sweepyto Guitare

Bob Marley - I Shot The Sheriff [ Artiste ]

Publié par le
20/03/2011
25648 vues
Moyen 1
http://www.youtube.com/watch?v=2XiYUYcpsT4
    
        

***********************************
* Bob Marley : I Shot the Sheriff *
***********************************

mesure = 2/4, tempo = 96, subdivision (-) = double-croche
suggestion de réglages :
    micro : 100% manche
    EQ = 100% bass / 0% mid / 0% treble

Refrain :
                  H
G|--------|-----035|--------|----+---|--------|--------|--------|--------|
D|----5---|--------|--------|--------|-0303+5+|-------0|33+3+05+|--------|
A|--5-----|--------|--------|--------|--------|--------|--------|--------|
E|6-----3-|+-------|--------|--------|--------|--------|--------|-------6|

                  H
G|--------|-----035|--------|----+---|--------|--------|--------|--------|
D|--3-5---|--------|--------|--------|-0303+5+|-------0|33+3+05+|--------|
A|5-------|--------|--------|--------|--------|--------|--------|--------|
E|------3-|+-------|--------|--------|--------|--------|--------|--------|

Couplet :
G|8-------|7-------|--------|--7+----|8-------|7-------|--------|--------|
D|-8------|-7-----3|5+------|--------|-8------|-7-----3|5+------|5+------|
A|--6-----|--5---5-|--555555|5+------|--6-----|--5---5-|--555555|--5+----|
E|--------|--------|--------|--------|--------|--------|--------|--------|

G|8-------|7-------|--------|--7+----|8-------|7-------|--------|----5-7-|
D|-8------|-7-----3|5+------|--------|-8------|-7-----3|5+------|--------|
A|--6-----|--5---5-|--555555|5+------|--6-----|--5---5-|--555555|+-5-----|
E|--------|--------|--------|--------|--------|--------|--------|--------|

G|8-----8-|7-------|--------|--------|--------|--------|--------|--------|--------|
D|-----8--|--------|5+------|5+------|5-+3-+--|--------|--------|--------|--------|
A|--------|--------|--555555|--------|------5-|--3---5-|3-+1-+--|--------|--------|
E|--------|--------|--------|--------|--------|----6---|------3-|--------|--------|

Refrain

Couplet 2 :
G|8-------|7-------|--------|--7+----|8-------|7-------|--------|--------|
D|-8------|-7-----3|5+------|--------|-8------|-7-----3|5+------|5+------|
A|--6-----|--5---5-|--555555|5+------|--6-----|--5---5-|--555555|--5+----|
E|--------|--------|--------|--------|--------|--------|--------|--------|

G|8-------|7-------|--------|--7+----|8-------|7-------|--------|----5-7-|
D|-8------|-7-----3|5+------|--------|-8------|-7-----3|5+------|5+------|
A|--6-----|--5---5-|--555555|5+------|--6-----|--5---5-|--555555|--5-----|
E|--------|--------|--------|--------|--------|--------|--------|--------|

G|8-----8-|7-------|--------|--------|--------|--------|--------|--------|--------|
D|-----8--|--------|55+-5+-5|+-5+----|5-+3-+--|--------|--------|--------|--------|
A|--------|--------|---5--5-|-5------|------5-|--3---5-|3-+1-+--|--------|--------|
E|--------|--------|--------|--------|--------|----6---|------3-|--------|--------|

Refrain
Couplet 2

Pont :
 |: 3x   :|
G|--------|
D|--------|
A|--------|
E|--------|

Refrain

Couplet 3 :
G|8-------|7-------|--------|--7+----|8-------|7-------|--------|--------|
D|-8------|-7-----3|5+------|--------|-8------|-7-----3|5+------|5+------|
A|--6-----|--5---5-|--555555|5+------|--6-----|--5---5-|--555555|--5+----|
E|--------|--------|--------|--------|--------|--------|--------|--------|

G|8-------|7-------|--------|--7+----|8-------|7-------|--------|----5-7-|
D|-8------|-7-----3|5+------|--------|-8------|-7-----3|5+------|5+------|
A|--6-----|--5---5-|--555555|5+------|--6-----|--5---5-|--555555|--5-----|
E|--------|--------|--------|--------|--------|--------|--------|--------|

G|8-----+-|7-----+-|--------|--------|--------|--------|--------|--------|--------|
D|--------|--------|55+-5+-5|+-------|5-+3-+--|--------|--------|--------|--------|
A|--------|--------|---5--5-|--------|------5-|--3---5-|3-+1-+--|--------|--------|
E|--------|--------|--------|--------|--------|----6---|------3-|--------|--------|

Finale :
                  H
G|--------|-----035|--------|----+---|--------|--------|--------|--------|
D|----5---|--------|--------|--------|-0303+5+|-------0|33+3+05+|--------|
A|--5-----|--------|--------|--------|--------|--------|--------|--------|
E|6-----3-|+-------|--------|--------|--------|--------|--------|-------6|

 |: 5x            H                                                     :|
G|--------|-----035|--------|----+---|--------|--------|--------|--------|
D|--3-5---|--------|--------|--------|-0303+5+|-------0|33+3+05+|--------|
A|5-------|--------|--------|--------|--------|--------|--------|--------|
E|------3-|+-------|--------|--------|--------|--------|--------|-------6|

                  H
G|--------|-----035|--------|----+---|--------|--------|--------|--------|--------|--------|
D|--3-5---|--------|--------|--------|-0303+5+|-------0|33+3+05+|--------|----5---|--------|
A|5-------|--------|--------|--------|--------|--------|--------|--------|--5-----|--------|
E|------3-|+-------|--------|--------|--------|--------|--------|--------|6-----3-|+-------|

======================================================================================================
Légende : + = étouffer la corde (stopper le son)
          H = Hammer On (de la note qui se trouve juste sous le H)
          |: Nx :| = répéter N fois le passage entre |: et :|
======================================================================================================

Visitez http://www.ilovetabs.com pour d'autres tablatures "+R" pour guitare basse.

    
    

2 Commentaires

1 2 3 4 5
5 notes
Notes pour I Shot The Sheriff Basse Tab - (Bob Marley) | Slappyto : 4/5 sur 5 notes
#2
04/02/2012 15:42:42
Retirer
mister Cbass

Merci Etienne, 

 

Quoi de neuf, t'es plus sur FB?

J'avais viré mon compte mais je l'ai recrée (Etienne Hilson). Trop de contacts dont je n'ai pas le téléphone ni l'email. Par contre je suis beaucoup moins actif car je suis principalement sur Google+

0
0
#1
23/01/2012 20:44:00

Merci Etienne, 

 

Quoi de neuf, t'es plus sur FB?

0
0

En Live

Saikodoll vient tout juste de rejoindre la communauté Slappyto. Bienvenue ! il y a 2 jours
Bertrand44 vient tout juste de rejoindre la communauté Slappyto. Bienvenue ! il y a 3 jours
OLIVIER59500 vient tout juste de rejoindre la communauté Slappyto. Bienvenue ! il y a 3 jours
Jazzbassfoufou vient tout juste de rejoindre la communauté Slappyto. Bienvenue ! il y a 4 jours
MrSpit a commenté le topic [Sandberg Fretless] de MrSpit il y a 4 jours