ConnexionConnexionInscription
B E A D G
135 connectés Aller à Sweepyto Guitare

U2 - One [ Artiste ]

Publié par le
13/03/2011
15206 vues
Débutant 2
http://www.youtube.com/watch?v=lWdG8NoFXY0
    
        

Verse: Bass enter at 1:05

    A            D            F            G
G|------------------------------------------------------|
D|*------------------------2--3--3---------5--5--------*|
A|*-----------3--5--5--0-5----------5-3-5--------7-5-3-*|
E|--5--5--3-5-------------------------------------------|



Chorus:

   C            A            F            C
G|------------------------------------------------------|
D|*----------------------------------------------------*|
A|*3--3--2-3-2-------------------------2--3--3--3-3-2--*|
E|--------------5--5--3-5-3--1--1--0-1------------------|


Bridge:

   C            A           C              A
G|------------------------------------------------------|
D|------------------------------------------------------|
A|-3--3--2-3-2------------2-3--3-3-3-3-3--2-----------2-|
E|--------------5-5-5--5-5-----------------5-5-5--5-5---|


2:41
   C            G
G|------------------------------------------------------|
D|------------------------------------------------------|
A|-3--33333--2------------------------------------------|
E|--------------3-3-3-3-3-3-3-1-3-3-3-3-3-3-3-----------|

   F                         C
G|------------------------------------------------------|
D|------------------------------------------------------|
A|------------------------------------------------------|
E|-1-1-1-1-1-1-1-1-0-1-1-1-1-1-1-1----------------------|

Outro
  C            A            F             C
G|------------------------------------------------------|
D|------------------------------------------------------|
A|-3--33--33-2-------------------------2--3--33--33--2--|
E|--------------5--55--55-3--1--11-11-------------------|

    
    

0 Commentaires : réagissez !

1 2 3 4 5
0 notes
Aucun commentaire !

En Live

Wario a commenté le topic [GL Kiloton US 890€] de Wario il y a 21 heures
Fathertom a voté pour le message de Phil08140 il y a 1 jour
Bassman59 a commenté le topic [Basse chez Lenny kravitz ?] de Vinceom il y a 1 jour
Cesparu89 vient tout juste de rejoindre la communauté Slappyto. Bienvenue ! il y a 3 jours
Guyjacquot vient tout juste de rejoindre la communauté Slappyto. Bienvenue ! il y a 3 jours
LauFro vient tout juste de rejoindre la communauté Slappyto. Bienvenue ! il y a 4 jours
Khan, patb, Chirac et Bass13013 ont commenté le topic [Pat est décédé] de khan il y a 4 jours
Jaybignoise vient tout juste de rejoindre la communauté Slappyto. Bienvenue ! il y a 5 jours
Fathertom a commenté le topic [Combo hésitation] de Fathertom il y a 6 jours