ConnexionConnexionInscription
B E A D G
141 connectés Aller à Sweepyto Guitare

The Beatles - Yesterday [ Artiste ]

Publié par le
26/03/2011
14091 vues
Débutant 1
http://www.youtube.com/watch?v=YtrA4xqxIVY
    
        

***************************
* The Beatles : Yesterday *
***************************

mesure = 4/4, tempo = 95, subdivision (-) = croche
suggestion de réglages :
    micro : 100% manche
    EQ = 50% bass / 50% mid / 50% treble

Intro :
G|--------|--------|
D|3---3---|3---3---|
A|--------|--------|
E|--------|--------|

Couplet :
G|--------|--------|7---7-5-|3---5---|--------|----0---|3-------|
D|3---3--0|2---7---|--------|--------|3---3-2-|0-------|--33----|
A|--------|--------|--------|--------|--------|--------|--------|
E|--------|--------|--------|--------|--------|--------|--------|

G|--------|--------|7---7-5-|3--35---|--------|----0---|3-------|
D|3---3--0|2---7---|--------|--------|3---3-2-|0--0----|--33--3-|
A|--------|--------|--------|--------|--------|--------|--------|
E|--------|--------|--------|--------|--------|--------|--------|

Refrain :
G|--------|7-5-3-2-|0---5---|--------|--------|7-5-3-2-|0---5---|--------|
D|7---7---|--------|--------|3---3--0|7---7---|--------|--------|3-------|
A|--------|--------|--------|--------|--------|--------|--------|--------|
E|--------|--------|--------|--------|--------|--------|--------|--------|

Couplet 2 :
G|--------|--------|7---7-5-|3---5---|--------|----0---|3-------|
D|3---3--0|2---7---|--------|--------|3---3-2-|0--0----|--33---0|
A|--------|--------|--------|--------|--------|--------|--------|
E|--------|--------|--------|--------|--------|--------|--------|

Refrain

Couplet 3 :
G|--------|--------|7---7-5-|3---5---|--------|----0---|3-------|5---4---|3-------|
D|3---3--0|2---7---|--------|--------|3---3-2-|0--0----|--33--3-|--------|--33----|
A|--------|--------|--------|--------|--------|--------|--------|--------|--------|
E|--------|--------|--------|--------|--------|--------|--------|--------|--------|

Visitez http://www.ilovetabs.com pour d'autres tablatures "+R" pour guitare basse.

    
    

0 Commentaires : réagissez !

1 2 3 4 5
1 note
Notes pour Yesterday Basse Tab - (The Beatles) | Slappyto : 5/5 sur 1 note
Aucun commentaire !

En Live

OLIVIER59500 vient tout juste de rejoindre la communauté Slappyto. Bienvenue ! il y a 7 heures
Jazzbassfoufou vient tout juste de rejoindre la communauté Slappyto. Bienvenue ! il y a 1 jour
MrSpit a commenté le topic [Sandberg Fretless] de MrSpit il y a 1 jour
Sasam a commenté le wall de deni's il y a 5 jours