ConnexionConnexionInscription
B E A D G
132 connectés Aller à Sweepyto Guitare

Flobots - Fight With Tools [ Artiste ]

Publié par le
07/04/2011
2257 vues
Débutant 2
http://www.youtube.com/watch?v=7mKM9J3eo30
    
        

Intro:
G:---------------:
D:---------------:
A:---5-3---------:
E:-5-------3-5-1-:

Verse
G:----------------------:   :-------:
D:-----------7-9-10-9-7-:   :-------:
A:----33-55-7-----------:   :---3-5-:
E:-55-------------------:X3 :-5-----:

Chorus:
G:----------------:------------------:
D:------------7---:-----7-7-9-10-9-7-:
A:---5-3--------8-:-8-10-------------:
E:-5-------3------:------------------:

Breakdown:
G:----------:
D:----------:
A:----33-55-:
E:-55-------:
    
    

0 Commentaires : réagissez !

1 2 3 4 5
0 notes
Aucun commentaire !

En Live

Manyak et Wario ont commenté le topic [Photos de vos basses] de lucas il y a 19 heures