ConnexionConnexionInscription
B E A D G
79 connectés Aller à Sweepyto Guitare

Rage Against The Machine - Bombtrack [ Artiste ]

Publié par le
05/05/2011
16536 vues
Moyen 4
http://www.youtube.com/watch?v=Tu1wAP2Baco
    
        

Intro:
G[----------------------------0------------------------]
D[---2-0--0---------2-0---0-2--------------------------]
A[-------2--2-0---------2------------------------------]
E[-0------------3-0------------------------------------]

G[----------------------------------------------------]
D[---2-0--0---------2-0---0---------------------------]
A[-------2--2-0---------2---2-------------------------]
E[-0------------3-0------------3-2--------------------]

G[----------------------------0------------------------]
D[---2-0--0---------2-0---0-2--------------------------]
A[-------2--2-0---------2------------------------------]
E[-0------------3-0------------------------------------]

G[----------------------------------------------------]
D[---2-0--0---------2-0---0---------------------------]
A[-------2--2-0---------2---2-------------------------]
E[-0------------3-0------------3-2--------------------]

Chorus:
G[----------------------------------------------------]
D[------4----------4-2-----4--------------------------]
A[-------------------------------4--3--2--------------]
E[-0-2----0-2--0-2-----0-2---0-2----------------------]

Verse:
G[----------------------------------------------------]
D[-------------------------------4--2-----------------]
A[------------------------------------4-3-2-----------]
E[-2-2-0--2-2-2-2--5^-2-2-0-2-0-------------5---------]

Lead up to Guitar Solo:
G[-----------------------------------------------------------]
D[-----------------------------------------------------------]
A[-----------------------------------------------------------]
E[-0-0-0-0-0-0-0-0-0-0-0-0-0-0-0-0-0-0-0-0-0-0-0-0-0-0-0-0-0-]

G[-------------------------------------------]
D[-------------------------------------------]
A[-7-7-7-7-7-7-7-7-7-------------------------]
E[-------------------------------------------]

Heavy Bit: (also played during solo)
G[-------------------------------------------------------]
D[-------------------------------------------------------]
A[----------------------------------------4p0-3p0-2p0----]
E[-2p0-2p0-5^-2p0-2p0-----2p0-2p0-5^-2p0-----------------]

Last bar after Chorus Rif:
G[----------------------------------------------------]
D[------4----------4-2-----4--------------------------]
A[-------------------------------4--3--2---2-1-0------]
E[-0-2----0-2--0-2-----0-2---0-2----------------------]


Légende

^ = bend 
    
    

3 Commentaires

1 2 3 4 5
4 notes
Notes pour Bombtrack Basse Tab - (Rage Against The Machine) | Slappyto : 4/5 sur 4 notes
#3
24/04/2013 11:42:50
?
Sidbass
C'est moi où c'est faux au début ?
 Ou c'est juste une erreur de ma part, pardon...  
0
0
#2
24/04/2013 11:39:34
C'est moi où c'est faux au début ?
0
0
#1
17/10/2012 18:53:06

qui ne fait pas ONE TWO TREE après l'intro ? 

 

0
+1

En Live

Mushaloni et Chirac ont commenté le topic [Besoin d'un bricoleur !] de Mushaloni il y a 5 heures
Manyak et Wario ont commenté le topic [Photos de vos basses] de lucas il y a 1 jour